Oops, an error
Loading. Please wait.

Id Tell You But tab

version 4
version 4

Whole song

Interactive

Video

1,216 views 1 this week
1 commentread comment
1 2 3 4 5
3 more votes to show rating
add to favorites
×
Save as Personal and add changes to this tab that will be seen only by you. Learn more ›
×
You can save this tab as Personal to edit and correct it or add notes. All changes will be seen only by you. Learn more »
launch autoscroll
font size
0
reset
how to read this tab
guitar tuner
edit
Autoscroll
slow
fast
+/-
esc
set tempo
stop
Author
Anti-Flag - I’d Tell You But…

Intro x2

#Guitar1#          
e|--------------------------------------------------------------------------------------à
B|--7-7-0-0-7-7-0-0-7-7-0-0-4-5-4-2—-5-5-4-4-0-2—-5-5-4-4-0-2--5-5-4-4-0-2--5-5-4-4-0-2-à
G|--------------------------------------------------------------------------------------à
D|--------------------------------------------------------------------------------------à
A|--------------------------------------------------------------------------------------à
E|--------------------------------------------------------------------------------------à

#Guitar2#
e|--------------------------------------------------------------------------------------à
B|--------------------------------------------------------------------------------------à
G|-----------------------------6--6-----------------------------------------------------à
D|-------------------------20\-6--6--------------------------2------------------------7-à
A|-------------------------20\-4--4--------------------------2------------------------7-à
E|-------------------------20\-------------------------------0------------------------5-à

#Guitar1#
e|-------------------------------------------------------------|
B|--5-5-4-4-0-2--5-5-4-4-5-5--7-7-0-0-7-7-0-0-7-7-0-0-4-5-4-2--|
G|-------------------------------------------------------------|
D|-------------------------------------------------------------|
A|-------------------------------------------------------------|
E|-------------------------------------------------------------|

#Guitar2#
e|-------------------------------------------------------------|
B|-------------------------------------------------------------|
G|--------------------------------------------4-------4-----6--|
D|----------------------------2-------2-------4-------4-----6--|
A|----------------------------2-------2-------2-------2-----4--|
E|----------------------------0-------0------------------------|
:
Verse

#Guitar1# & #Guitar2#     m= palm-muting         x2 
e|----------------------------------------------------------------à
B|----------------------------------------------------------------à
G|--6-------------------------------4-----------------------------à
D|--6-6-6-6-6-6-6-6-6-6-6-6-6-6-6---4-4-4-4-4-4-4-4-4-4-4-4-4-4-4-à
A|--4-4-4-4-4-4-4-4-4-4-4-4-4-4-4---2-2-2-2-2-2-2-2-2-2-2-2-2-2-2-à
E|----------------------------------------------------------------à
      Mmmmmmmmmmmmmmmmmmmmmmmmmmm     mmmmmmmmmmmmmmmmmmmmmmmmmmm

e|---------------------------------------------------------------|
B|---------------------------------------------------------------|
G|---------------------------------4-----------------------------|
D|--7------------------------------4-4-4-4-4-4-4-4-4-4-4-4-4-4-4-|
A|--7-7-7-7-7-7-7-7-7-7-7-7-7-7-7—-2-2-2-2-2-2-2-2-2-2-2-2-2-2-2-|
E|--5-5-5-5-5-5-5-5-5-5-5-5-5-5-5--------------------------------|
      Mmmmmmmmmmmmmmmmmmmmmmmmmmm    mmmmmmmmmmmmmmmmmmmmmmmmmmm
:
Pre-Chorus

#Guitar1# & #Guitar2#
e|---------------------------------------------------------|
B|---------------------------------------------------------|
G|-------------------------6-6-6--4-4-4-4-4-4-4--4—-4/9\8--|
D|--7-7-7-7-7-7-7-7-7-7-7--6-6-6--4-4-4-4-4-4-4--4—-x/x\x--|
A|--7-7-7-7-7-7-7-7-7-7-7-—4-4-4--2-2-2-2-2-2-2--2—-2/7\6--|
E|--5-5-5-5-5-5-5-5-5-5-5----------------------------------|
:
Chorus

#Guitar1#  x2              End1    End2     play every note a few times
e|----------------------|-------|-------|
B|----------------------|-------|-------|
G|--6----------------4—-|-4/9\8-|-4-4-4-|
D|--6-----2-----7----4--|-x/x\x-|-4-4-4-|
A|--4-----2-----7----2--|-2/7\6-|-2-2-2-|
E|--------0-----5-------|-------|-------|



#Guitar2#    x2
e|------------------------|
B|------------------------|
G|--6----------------4—---|
D|--6-----2-----7----4----|
A|--4-----2-----7----2----|
E|--------0-----5---------|
:
Post-Chorus

#Guitar1# & #Guitar2#
e|------------------------------------------------------------------------------------------|
B|------4-----4-----4-----4------7-----7-----7-----7---------10-------10-------10-------10--|
G|------------------------------------------------------------------------------------------|
D|------------------------------------------------------------------------------------------|
A|--2-2---2-2---2-2---2-2----5-5---5-5---5-5---5-5-----12-12----12-12----12-12----12-12-----|
E|------------------------------------------------------------------------------------------|

   End Guit.1       End Guit.2
e|-------------9-|---------------|
B|-------------9-|---------------|
G|-11------------|-11----------6-|
D|-11------------|-11----------6-|
A|--9------------|--9----------4-|
E|---------------|---------------|
:
Solo

#Guitar1#        (#Guitar2# plays intro x2)
e|-9-9-9-9-9-9-9-9-9-9-9-9-9\-------------------------------------------------------------à
B|-9-9-9-9-9-9-9-9-9-9-9-9-9\-----------9----9----9----9----------9------9------9---------à
G|------------------------------9--9--9-9--9-9--9-9--9-9--9-----------------------11b-9-11à
D|-----------------------------11-11-11---11---11---11---11--9-11---9-11---9-11-----------à
A|----------------------------------------------------------------------------------------à
E|----------------------------------------------------------------------------------------à


e|--------------------12-12-12----------------12-12----------------------14\12------14\12-à
B|-----------------------------9-9-10-10------------9-9-10-10-12-12-----------------------à
G|-11—-11\--11—-11\----------------------9-9-------------------------9-9--------9-9-------à
D|----------------------------------------------------------------------------------------à
A|----------------------------------------------------------------------------------------à
E|----------------------------------------------------------------------------------------à


e|-----14\12------14\12-------------------------------------------------------|
B|-----------------------12-12-10-10-9-9---10--10-9-9-7-7------7--5--4--4-----|
G|-9-9--------9-9------------------------9----------------9-9-------------6~--|
D|----------------------------------------------------------------------------|
A|----------------------------------------------------------------------------|
E|----------------------------------------------------------------------------|
:
Bridge

#Guitar1#
e|--------------------------------------------------------------------------------------|
B|--------------------------------------------------------------------------------------|
G|------6---------------6---—6---14--------------6-----6-----6-----6-----6-----6-----6--|
D|------6---7-----------6----6-9914-------6-6----6--6-----6-----6-----6-----6-----6--6--|
A|------4---7-----------4----4-7712-------4---4--4--4-----4-----4-----4-----4-----4--4--|
E|----------5---------------------------------------------------------------------------|

#Guitar2#
e|----------------------------------------------12-12-12-12-12-12-12-12-14-14-14-14-14-|
B|-------------------------------------------------------------------------------------|
G|------8-9-6-----9--8--6---—-8—9-6-----9-8------9—-9--9--9--9--9--9--9----------------|
D|-------------------------------------------------------------------------------------|
A|-------------------------------------------------------------------------------------|
E|-------------------------------------------------------------------------------------|
:
then play chorus and intro x1

#Guitar1# ends on B|-2-2-2-2-2\--|

#Guitar2# ends on C#5 (x5 like #Guitar1)


            
            
Suggest correction
Creating personal tab
Creating personal tab
You can edit any tab online and save it as your Personal.

You can edit, replace or remove any tab part or add personal notes – all changes will be seen only by you.

Personal tabs can be accessed anytime from any device, even offline.
Learn more »
Give kudos to tab author, rate the tab!
1 2 3 4 5
comments
print report bad tab
1 comment total.
0 reply
7SynysterxGates 81 Jul 21, 2013 07:37 PM

This is somewhat confusing but good effort. 4/5.

guest
You may want to rate the tab now too:
select rating
Wanna post a correction for this tab? Suggest correction