Oops, an error
Loading. Please wait.

Indie Sux Hardline Sux Emo Sux You Suck tab

version 1
version 1

Whole song

Interactive

2,655 views 1 this week
9 commentsread comments
1 2 3 4 5
x 5
add to favorites
×
Save as Personal and add changes to this tab that will be seen only by you. Learn more ›
×
You can save this tab as Personal to edit and correct it or add notes. All changes will be seen only by you. Learn more »
launch autoscroll
font size
0
reset
how to read this tab
guitar tuner
edit
Autoscroll
slow
fast
+/-
esc
set tempo
stop
e---------------------| 
B---------------------| 
G----------88888888---| (x2) 
D-88888888-88888888---| 
A-88888888-66666666---| 
E-66666666------------| 

e-------------------------------| 
B-------------------------------| 
G-------------3-----------------| (x2) 
D-8888888-5-3-------------------| 
A---------------6666666-5-3-----| 
E---------------------------6---| 

e---------------------| 
B---------------------| 
G----------88888888---| (x2) 
D-88888888-88888888---| 
A-88888888-66666666---| 
E-66666666------------| 

e---------------------| 
B---------------------| 
G-55555555-88888888---| (x1) 
D-55555555-88888888---| 
A-33333333-66666666---| 
E---------------------| 

e-------------------| 
B-------------------| 
G-----888-555--88---| (x2) 
D-888-888-555--88---| 
A-888-666-333--66---| 
E-666---------------| 

e-------------------------------| 
B-------------------------------| 
G-------------3-----------------| (x2) 
D-8888888-5-3-------------------| 
A---------------6666666-5-3-----| 
E---------------------------6---| 

e---------------------| 
B---------------------| 
G----------88888888---| (x2) 
D-88888888-88888888---| 
A-88888888-66666666---| 
E-66666666------------| 

e---------------------| 
B---------------------| 
G-55555555-88888888---| (x1) 
D-55555555-88888888---| 
A-33333333-66666666---| 
E---------------------| 

e-------------------| 
B-------------------| 
G-----888-555--88---| (x2) 
D-888-888-555--88---| 
A-888-666-333--66---| 
E-666---------------| 

e---------------| 
B---------------| 
G-----------8---| (x1) 
D-88888888--8---| 
A-88888888--6---| 
E-66666666------| 

e------------| 
B------------| 
G------------| (x1) 
D-88888888---| 
A-88888888---| 
E-66666666---| 

e---------------------| 
B---------------------| 
G----------88888888---| (x4) 
D-88888888-88888888---| 
A-88888888-66666666---| 
E-66666666------------| 

e--------------| 
B--------------| 
G-55555555-8---| (x1) 
D-55555555-8---| hold last chord thru pause 
A-33333333-6---| 
E--------------| 

(boo hoo hoo my girlfriend dumped me...) 

e-------------------| 
B-------------------| 
G-----888-555--88---| (x4) 
D-888-888-555--88---| 
A-888-666-333--66---| 
E-666---------------|

            
            
Suggest correction
Creating personal tab
Creating personal tab
You can edit any tab online and save it as your Personal.

You can edit, replace or remove any tab part or add personal notes – all changes will be seen only by you.

Personal tabs can be accessed anytime from any device, even offline.
Learn more »
comments
print report bad tab
9 comments total. Showing first comments.
0 reply
benplaysguitar 72 May 20, 2006 05:59 AM

this is almost perfect its just missing the solo after the second chorus

0 reply
darkenedmalice 20 Jun 13, 2006 02:15 PM

you suck jk great job man this song is awesome

0 reply
NoideaDrivethru 10 Jun 28, 2006 07:54 PM

It'd be easier to play the lead in the intro:

e|-----------------|-----------------|
B|-----------------|-----------------|
G|-----------------|-----------------|
D|-8-8-8-8-8-5---5-|-----------------|
A|-------------8---|-6-6-6-6-6-5-----|
E|-----------------|-------------8-6-|

I think either way sounds good. Good job by the way.

guest
Wanna post a correction for this tab? Suggest correction