Oops, an error
Loading. Please wait.

Kill The Rich Bass

493 views 3 this week
no commentswrite comment
1 2 3 4 5
3 more votes to show rating
add to favorites
launch autoscroll
font size
0
reset
guitar tuner
×
Best way to learn
"Kill The Rich"
Autoscroll
slow
fast
+/-
esc
set tempo
stop
Author
Difficulty
intermediate
- Anti-Flag - Kill The Rich
- Tabbed by: Pacu, bassist from a brazilian punk rock band called PunkAss.
- To get the bass solo part you've got to listen to the song closely. It might have some 
notes but it's cool enough to play the song.
__________
Intro
G|----------------------------------|----|
D|----------------------------------|----|
A|---------222222223333333300000000-|-1x-|
E|-00000000-------------------------|----|

G|-------------------------------|----|
D|-------------------------------|----|
A|---------22222222333333330~~~~-|-1x-|
E|-00000000----------------------|----|

Only Guitar

Intro II
[00:23]
G|------------------------------------------------------|----|
D|-------------999-9999/10-1010/12-1212/14-1414/16-1717-|----|
A|-77777-79710------------------------------------------|-1x-|
E|------------------------------------------------------|----|

G|-------------------------------------|----|
D|-------------999-999109797--7--------|----|
A|-77777-79710--------------10-1091097-|-1x-|
E|-------------------------------------|----|

Verse
[00:33]
G|--------------------------------------------------|----|
D|-------------999-99-1097-1097-1097-1097-1097------|----|
A|-77777-79710--------------------------------10910-|-1x-|
E|--------------------------------------------------|----|

G|------------------------------------------------------|----|
D|-------------999-9999/10-1010/12-1212/14-1414/16-1717-|----|
A|-77777-79710------------------------------------------|-1x-|
E|------------------------------------------------------|----|

G|----------------|----|
D|----------------|----|
A|-----22--3---00-|-1x-|
E|-0--------------|----|

G|----------------------------------|----|
D|----------------------------------|----|
A|---------222222223333333300000000-|-1x-|
E|-00000000-------------------------|----|

Chorus
[00:53]
G|----------------------------------|----|
D|----------------------------------|----|
A|---------222222223333333300000000-|-2x-|
E|-00000000-------------------------|----|

Bridge I
[01:02]
G|----------------------------------------------------|----|
D|-------------999-9999/10-1010/12-1212/14-1414/16-17-|----|
A|-77777-79710----------------------------------------|-1x-|
E|----------------------------------------------------|----|

G|-------------------------------------|----|
D|-------------999-999109797--7--------|----|
A|-77777-79710--------------10-1091097-|-1x-|
E|-------------------------------------|----|

Verse
[01:12]
G|--------------------------------------------------|----|
D|-------------999-99-1097-1097-1097-1097-1097------|----|
A|-77777-79710--------------------------------10910-|-1x-|
E|--------------------------------------------------|----|

G|------------------------------------------------------|----|
D|-------------999-9999/10-1010/12-1212/14-1414/16-1717-|----|
A|-77777-79710------------------------------------------|-1x-|
E|------------------------------------------------------|----|

G|----------------|----|
D|----------------|----|
A|-----22--3---00-|-1x-|
E|-0--------------|----|

G|----------------------------------|----|
D|----------------------------------|----|
A|---------222222223333333300000000-|-1x-|
E|-00000000-------------------------|----|

Chorus
[01:33]
G|----------------------------------|----|
D|----------------------------------|----|
A|---------222222223333333300000000-|-2x-|
E|-00000000-------------------------|----|

Bridge II
[01:43]
G|----------------------------------|----|
D|----------------------------------|----|
A|-2222222222222220---------------0-|-4x-|
E|-----------------333333333333333--|----|

G|--------------------------------|----|
D|--------------------------------|----|
A|------------------------------0-|-1x-|
E|-2222222222222222333333333333---|----|

G|----------------------------------|----|
D|----------------------------------|----|
A|------------------------------0---|-1x-|
E|-2222222222222222333333333333---0-|----|

Only Guitar

Bridge III
[02:16]
G|------|----|
D|------|----|
A|-7777-|-1x-|
E|------|----|

G|----------------------------------|----|
D|----------------------------------|----|
A|---------222222223333333300000000-|-1x-|
E|-00000000-------------------------|----|

Bass Solo
[02:21]
G|-------------------------------------------------|----|
D|-------------999-9999/10-1010/12-1212/14-1414/16-|----|
A|-77777-79710-------------------------------------|-1x-|
E|-------------------------------------------------|----|

G|---------------------------------------------17-----17---------17-----------|----|
D|-1616171614-171614-171614-171614-171614-17/19---1919---17-17h19--1919171617-|----|
A|----------------------------------------------------------------------------|-1x-|
E|----------------------------------------------------------------------------|----|

G|-----97----------1010-1010-------|----|
D|-------10----9~--1010-1010--1212-|----|
A|-7-77----------------------------|-1x-|
E|---------7~-7---8----8----10-----|----|

G|-----97----------------------------------------------|----|
D|-------10--------10b9-7h9b7--7-----------------------|----|
A|-7-77----------------------10-109-9h10b97-7h9b7------|-1x-|
E|---------77777777------------------------------10910-|----|

Ending Chorus
[02:40]
G|----------------------------------|----|
D|----------------------------------|----|
A|---------222222223333333300000000-|-3x-|
E|-00000000-------------------------|----|

G|-----------------------------------------------|----|
D|-----------------109797--7---------------------|----|
A|---------22222222------10-109109797------------|-1x-|
E|-00000000--------------------------10910-0~~~~-|----|
Suggest correction
Give kudos to tab author, rate the tab!
1 2 3 4 5
comments
print report bad tab
guest
You may want to rate the tab now too:
select rating
Wanna post a correction for this tab? Suggest correction