Oops, an error
Loading. Please wait.

Mind The Gatt tab

version 1
version 1

Whole song

Interactive

2,443 views 1 this week
no commentswrite comment
1 2 3 4 5
x 5
add to favorites
×
Save as Personal and add changes to this tab that will be seen only by you. Learn more ›
×
You can save this tab as Personal to edit and correct it or add notes. All changes will be seen only by you. Learn more »
launch autoscroll
font size
0
reset
how to read this tab
guitar tuner
edit
Autoscroll
slow
fast
+/-
esc
set tempo
stop
Author
-------------------------------------------------------------------------------
                             Mind The G.A.T.T - Anti-Flag
-------------------------------------------------------------------------------

Tuning: standard

e|--------------------------------------------------------|
B|--------------------------------------------------------|
G|--------------------------------------------------------|
D|--------------------------------------------------------|
A|--------------------------------------------------------|
E|--------------------------------------------------------|

e|-----------4-4-------------------------------------------------|
B|-----------5-5-----------5-5-------------5-5-----------5-5-----|
G|-6x-6x-6x-6-6-----------6-6-------------6-6-----------6-6------|
D|-6x-6x-6x-----7x-7x-7x--7-7--2x-2x-2x--7-7--2x-2x-2x-7-7-------|
A|-4x-4x-4x-----7x-7x-7x-------2x-2x-2x-------2x-2x-2x-----------|
E|---------------5x-5x-5x-------0x-0x-0x-------0x-0x-0x----------|

e|-----------4-4-------------------------------------------------|
B|-----------5-5---------5-----------------5-5-----------5-5-----|
G|-6x-6x-6x-6-6-----------6---------------6-6-----------6-6------|
D|-6x-6x-6x-----7x-7x-7x----7--2x-2x-2x--7-7--2x-2x-2x-7-7-------|
A|-4x-4x-4x-----7x-7x-7x-------2x-2x-2x-------2x-2x-2x-----------|
E|---------------5x-5x-5x-------0x-0x-0x-------0x-0x-0x----------|

e|----------4------------------------------------------------------|
B|------------5--------------5-5-------------5-5-----------5-5-----|
G|-6x-6x-6x----6------------6-6-------------6-6-----------6-6------|
D|-6x-6x-6x-------7x-7x-7x--7-7--2x-2x-2x--7-7--2x-2x-2x-7-7-------|
A|-4x-4x-4x-------7x-7x-7x-------2x-2x-2x-------2x-2x-2x-----------|
E|-----------------5x-5x-5x-------0x-0x-0x-------0x-0x-0x----------|

e|-----------4-4----------------------------------------------------0---------|
B|-----------5-5-----------5-5-------------5-5----------------------0---------|
G|-6x-6x-6x-6-6-----------6-6-------------6-6----------------------1----------|
D|-6x-6x-6x-----7x-7x-7x--7-7--2x-2x-2x--7-7--2x------------------2-(x8)------|
A|-4x-4x-4x-----7x-7x-7x-------2x-2x-2x-------2x-(palm muted E5 x8)-2---------|
E|---------------5x-5x-5x-------0x-0x-0x-------0x------------------0----------|

"As the sun sets bright over ancient earth and dissapears from view..."
Play these chords really sharply and quickly, all down strokes
e|------------------------------------------------------|
B|------------------------------------------------------|
G|-6-6-6-6---------6-6-6-6----------6-6-6-6-------------|
D|-6-6-6-6-7-7-7-7-6-6-6-6-7-7-7-7-6-6-6-6-7-7-7-7------|
A|-4-4-4-4-7-7-7-7-4-4-4-4-7-7-7-7-4-4-4-4-7-7-7-7------|
E|----------5-5-5-5---------5-5-5-5---------5-5-5-5-----|

Get rid of the sharpness and do alternate (up and down) strokes
e|----------------------------------------------------------|
B|----------------------------------------------------------|
G|------------------9-9-9-9-9-9-9-9-------------------------|
D|-7-7-7-7-7-7-7-7-9-9-9-9-9-9-9-9--------------------------|
A|-7-7-7-7-7-7-7-7-7-7-7-7-7-7-7-7--------------------------|
E|-5-5-5-5-5-5-5-5------------------------------------------|

All down strokes again
e|------------------------------------------------------|
B|------------------------------------------------------|
G|-6-6-6-6---------6-6-6-6----------6-6-6-6-------------|
D|-6-6-6-6-7-7-7-7-6-6-6-6-7-7-7-7-6-6-6-6-7-7-7-7------|
A|-4-4-4-4-7-7-7-7-4-4-4-4-7-7-7-7-4-4-4-4-7-7-7-7------|
E|----------5-5-5-5---------5-5-5-5---------5-5-5-5-----|

Alternate strokes
e|----------------------------------------------------------|
B|----------------------------------------------------------|
G|------------------9-9-9-9-9-9-9-9-------------------------|
D|-7-7-7-7-7-7-7-7-9-9-9-9-9-9-9-9--------------------------|
A|-7-7-7-7-7-7-7-7-7-7-7-7-7-7-7-7--------------------------|
E|-5-5-5-5-5-5-5-5------------------------------------------|

"From africa coasts to Australian midland..."
e|-----------------------------------------------------------|
B|-----------------------------------------------------------|
G|-6------------------------4--------------------------------|
D|-6-------7--------2-------4--------------------------------|
A|-4-------7--------2-------2--------------------------------|
E|---------5--------0----------------------------------------|

"the american plain to the sea of japan..."
e|-----------------------------------------------------------|
B|-----------------------------------------------------------|
G|-6------------------------4--------------------------------|
D|-6-------7--------2-------4--------------------------------|
A|-4-------7--------2-------2--------------------------------|
E|---------5--------0----------------------------------------|

"In your own backyard, or far off foriegn lands..."
----------PALM MUTE ALL CHORDS--------------------------------------------|
e|------------------------------------------------------------------------|
B|------------------------------------------------------------------------|
G|-6-6-6-6-6-6-6-6----------------------------------4-4-4-4-4-4-4-4-------|
D|-6-6-6-6-6-6-6-6-7-7-7-7-7-7-7-7-2-2-2-2-2-2-2-2-4-4-4-4-4-4-4-4--------|
A|-4-4-4-4-4-4-4-4-7-7-7-7-7-7-7-7-2-2-2-2-2-2-2-2-2-2-2-2-2-2-2-2--------|
E|------------------5-5-5-5-5-5-5-5-0-0-0-0-0-0-0-0-----------------------|

e|------------------------------------------------------------------------|
B|------------------------------------------------------------------------|
G|-6-6-6-6-6-6-6-6----------------------------------4-4-4-4-4-4-4-4-------|
D|-6-6-6-6-6-6-6-6-7-7-7-7-7-7-7-7-2-2-2-2-2-2-2-2-4-4-4-4-4-4-4-4--------|
A|-4-4-4-4-4-4-4-4-7-7-7-7-7-7-7-7-2-2-2-2-2-2-2-2-2-2-2-2-2-2-2-2--------|
E|------------------5-5-5-5-5-5-5-5-0-0-0-0-0-0-0-0-----------------------|
--------------pm----------------------------------------------------------|

e|--------------------------5---------------------------------|
B|--------------------------5-5-------------------------------|
G|-6-6-6-6---------6-6-6-6-6---6------------------------------|
D|-6-6-6-6-7-7-7-7-6-6-6-6-7-----7----------------------------|
A|-4-4-4-4-7-7-7-7-4-4-4-4-7-------7--------------------------|
E|----------5-5-5-5---------5---------------------------------|

"as evil hacks and rips at every corner of the world..."
e|------------------------------------------------------|
B|------------------------------------------------------|
G|-6-6-6-6---------6-6-6-6----------6-6-6-6-------------|
D|-6-6-6-6-7-7-7-7-6-6-6-6-7-7-7-7-6-6-6-6-7-7-7-7------|
A|-4-4-4-4-7-7-7-7-4-4-4-4-7-7-7-7-4-4-4-4-7-7-7-7------|
E|----------5-5-5-5---------5-5-5-5---------5-5-5-5-----|

"our voices sing in union..."
e|----------------------------------------------------------|
B|----------------------------------------------------------|
G|------------------9-9-9-9-9-9-9-9-------------------------|
D|-7-7-7-7-7-7-7-7-9-9-9-9-9-9-9-9--------------------------|
A|-7-7-7-7-7-7-7-7-7-7-7-7-7-7-7-7--------------------------|
E|-5-5-5-5-5-5-5-5------------------------------------------|

e|------------------------------------------------------|
B|------------------------------------------------------|
G|-6-6-6-6---------6-6-6-6----------6-6-6-6-------------|
D|-6-6-6-6-7-7-7-7-6-6-6-6-7-7-7-7-6-6-6-6-7-7-7-7------|
A|-4-4-4-4-7-7-7-7-4-4-4-4-7-7-7-7-4-4-4-4-7-7-7-7------|
E|----------5-5-5-5---------5-5-5-5---------5-5-5-5-----|

e|----------------------------------------------------------|
B|----------------------------------------------------------|
G|------------------9-9-9-9-9-9-9-9-------------------------|
D|-7-7-7-7-7-7-7-7-9-9-9-9-9-9-9-9--------------------------|
A|-7-7-7-7-7-7-7-7-7-7-7-7-7-7-7-7--------------------------|
E|-5-5-5-5-5-5-5-5------------------------------------------|

e|-----------------------------------------------------------|
B|-----------------------------------------------------------|
G|-6------------------------4--------------------------------|
D|-6-------7--------2-------4--------------------------------|
A|-4-------7--------2-------2--------------------------------|
E|---------5--------0----------------------------------------|

e|-----------------------------------------------------------|
B|-----------------------------------------------------------|
G|-6------------------------4--------------------------------|
D|-6-------7--------2-------4--------------------------------|
A|-4-------7--------2-------2--------------------------------|
E|---------5--------0----------------------------------------|

"In your own backyard, or far off foriegn lands..."
----------PALM MUTE ALL CHORDS--------------------------------------------|
e|------------------------------------------------------------------------|
B|------------------------------------------------------------------------|
G|-6-6-6-6-6-6-6-6----------------------------------4-4-4-4-4-4-4-4-------|
D|-6-6-6-6-6-6-6-6-7-7-7-7-7-7-7-7-2-2-2-2-2-2-2-2-4-4-4-4-4-4-4-4--------|
A|-4-4-4-4-4-4-4-4-7-7-7-7-7-7-7-7-2-2-2-2-2-2-2-2-2-2-2-2-2-2-2-2--------|
E|------------------5-5-5-5-5-5-5-5-0-0-0-0-0-0-0-0-----------------------|

e|------------------------------------------------------------------------|
B|------------------------------------------------------------------------|
G|-6-6-6-6-6-6-6-6----------------------------------4-4-4-4-4-4-4-4-------|
D|-6-6-6-6-6-6-6-6-7-7-7-7-7-7-7-7-2-2-2-2-2-2-2-2-4-4-4-4-4-4-4-4--------|
A|-4-4-4-4-4-4-4-4-7-7-7-7-7-7-7-7-2-2-2-2-2-2-2-2-2-2-2-2-2-2-2-2--------|
E|------------------5-5-5-5-5-5-5-5-0-0-0-0-0-0-0-0-----------------------|
--------------pm----------------------------------------------------------|

"Rethink... Fucking dig in..."
(Bass plays this)
G|----------------------------------------------------------|
D|----------------------------------------------------------|
A|-4-4-4-4----------4-4-4-4------7-7------------------------|
E|----------5-5-0-0----------5-5----------------------------|

G|----------------------------------------------------------|
D|----------------------------------------------------------|
A|-4-4-4-4----------4-4-4-4------7-7------------------------|
E|----------5-5-0-0----------5-5----------------------------|

Guitar plays this at 2:32
e|---0----------------------------------------------------|
B|-4-9----------------------------------------------------|
G|--------------------------------------------------------|
D|--------------------------------------------------------|
A|--------------------------------------------------------|
E|--------------------------------------------------------|

"Don't sit by and take it..."
e|-----------------------------------------|
B|-----------------------------------------|
G|-6-6-6-6---------6-6-6-6-----9-9---------|
D|-6-6-6-6-7-7-2-2-6-6-6-6-7-7-9-9---------|
A|-4-4-4-4-7-7-2-2-4-4-4-4-7-7-7-7---------|
E|----------5-5-0-0---------5-5------------|

e|-----------------------------------------|
B|-----------------------------------------|
G|-6-6-6-6---------6-6-6-6-----9-9---------|
D|-6-6-6-6-7-7-2-2-6-6-6-6-7-7-9-9---------|
A|-4-4-4-4-7-7-2-2-4-4-4-4-7-7-7-7---------|
E|----------5-5-0-0---------5-5------------|

"Don't sit by and take it..."
e|------------------------------------------------------------------------------|
B|------------------------------------------------------------------------------|
G|-6-6-6-6-6-6-6-6------------------6-6-6-6-6-6-6-6-----------------9-9-9-9-----|
D|-6-6-6-6-6-6-6-6-7-7-7-7-2-2-2-2-6-6-6-6-6-6-6-6-7-7-7-7-2-2-2-2-9-9-9-9------|
A|-4-4-4-4-4-4-4-4-7-7-7-7-2-2-2-2-4-4-4-4-4-4-4-4-7-7-7-7-2-2-2-2-7-7-7-7------|
E|------------------5-5-5-5-0-0-0-0------------------5-5-5-5-0-0-0-0------------|

e|------------------------------------------------------------------------------|
B|------------------------------------------------------------------------------|
G|-6-6-6-6-6-6-6-6------------------6-6-6-6-6-6-6-6-----------------9-9-9-9-----|
D|-6-6-6-6-6-6-6-6-7-7-7-7-2-2-2-2-6-6-6-6-6-6-6-6-7-7-7-7-2-2-2-2-9-9-9-9------|
A|-4-4-4-4-4-4-4-4-7-7-7-7-2-2-2-2-4-4-4-4-4-4-4-4-7-7-7-7-2-2-2-2-7-7-7-7------|
E|------------------5-5-5-5-0-0-0-0------------------5-5-5-5-0-0-0-0------------|

e|-------------------------------------------------------|
B|-------------------------------------------------------|
G|-6-----------------------------------------------------|
D|-6-------7--------2------------------------------------|
A|-4-------7--------2------------------------------------|
E|---------5--------0------------------------------------|

Thats the whole song, please rate well.
If the chords are not allinged properly thats not my fault, for some reason the system 
them up sometimes but you should be able to read it fine.

Lyrics:

A brand new history
Slyly and quickly
Sparkles in your eyes
Hope your not missing
The flash points/sign posts
Etching the future
From here

Ancient ancestors transmitting via pool formed from rainfall
Where my reflection stares back at me and says
As the sun sets bright over ancient earth and disappears from view
The spirit of the world will rise up from the disc again
Our voices sing in union
Lifless, soulless, secret abyss
Plotting the worlds doom
Production and consumption wakes the sleeping world to sing again
Our voices sing in union

From african coasts to australian mainland
Watch your brothers back, watch your sisters back
From the american plains to the sea of japan
Watch your brothers back, watch your sisters back
In your own backyard, or far off foreign lands
We find our adversaries woven of the same thread

As evil hacks and rips at every corner of the world
The peoples voice will sing as one voice
Our voices sing in union
To implement a Paul Hawken-Esque model for the world
The people voice will sing as one voice
Our voices sing in union

The Arabian sea to the coast of chile
Watch your brothers back, watch your sisters back
The plateau of tibet to the bay of biscay
Watch your brothers back, watch your sisters back
In your own backyard, or far off foreign lands
We find our adversaries woven of the same thread

Rethink... Fucking dig in

Don't sit by and take it
They built it we can break it
We're not gonna stand for any G.A. double T's

Don't sit by and take it
They built it we can break it
We're not gonna stand for any G.A. double T's

Don't sit by and take it
They built it we can break it
We're not gonna stand for any G.A. double T's

Don't sit by and take it
They built it we can break it
We're not gonna stand for any G.A. double T's

            
            
Suggest correction
Creating personal tab
Creating personal tab
You can edit any tab online and save it as your Personal.

You can edit, replace or remove any tab part or add personal notes – all changes will be seen only by you.

Personal tabs can be accessed anytime from any device, even offline.
Learn more »
comments
print report bad tab
guest
You may want to rate the tab now too:
select rating
Wanna post a correction for this tab? Suggest correction