Oops, an error
Loading. Please wait.

No Future Bass Tab

version 1
version 1

Whole song

Interactive

6,600 views 9 this week
no commentswrite comment
1 2 3 4 5
excellent!
x 3
add to favorites
launch autoscroll
font size
0
reset
guitar tuner
Tab Pro tools
  • play this tab
  • loop segment
  • change instrument
  • show fretboard
  • metronome
Autoscroll
slow
fast
+/-
esc
set tempo
stop
Contributor
Difficulty
intermediate
Anti-Flag
“No Future”
By: Albert Associate

Intro:
Gb|-77-99-1010-1212-1414-1212-1010-99-|--7--| 
Db|-00-00--0-0--0-0--0-0--0-0--0-0-00-5--0--| 
Ab|-----------------------------------x-----| 
Eb|-----------------------------------|-----| 

Verse:
Gb|----------------------------------------------33-| 
Db|----88-77-55-33-55-33-22----88-77-55-33-55-33----| 2x
Ab|-55----------------------55----------------------| 
Eb|-------------------------------------------------| 

Verse 2:
Gb|------------------------------------------------------| 
Db|------8-7-5-------------------8-7-5---5-7-5---5-------| 2x
Ab|-5555-------8-5555-77-88-5555-------8-------8---8-7-8-| 
Eb|------------------------------------------------------| 

Pre-Chorus:
Gb|---------------------------------------| 
Db|----88------88------88--------1010-----| 
Ab|--88--88--88--88--88--88--1010----1010-| 
Eb|-6-------6-------6-------8-------------| 

Chorus:
Gb|--------------------------------------------------------| 
Db|--------------------------------------------------------| 
Ab|-55-5555---------33-3333---------55-5555-88-8888--------| 
Eb|---------11-1111---------66-6666-----------------88-888-| 

Gb|-----------------------------------| 
Db|---------------------------------8-| 
Ab|---88-77------88-77------88-77-----| 
Eb|-66-----88--66-----88--66-----88---| 

Verse:
Gb|----------------------------------------------33-| 
Db|----88-77-55-33-55-33-22----88-77-55-33-55-33----| 2x
Ab|-55----------------------55----------------------| 
Eb|-------------------------------------------------| 

Verse 2:
Gb|------------------------------------------------------| 
Db|------8-7-5-------------------8-7-5---5-7-5---5-------| 2x
Ab|-5555-------8-5555-77-88-5555-------8-------8---8-7-8-| 
Eb|------------------------------------------------------| 

Pre-Chorus:
Gb|---------------------------------------| 
Db|----88------88------88--------1010-----| 
Ab|--88--88--88--88--88--88--1010----1010-| 
Eb|-6-------6-------6-------8-------------| 

Chorus:
Gb|-----------------------------------------------------------------| 
Db|-----------------------------------------------------------------| 
Ab|-55-5555---------33-3333---------55-5555-88-8888---------66-6666-| 
Eb|---------11-1111---------66-6666-----------------88-8888---------| 

Gb|--------------------------------------------------------------| 
Db|--------------------------------------------------------------| 
Ab|-3-555------------333-11111-3-55-5555-88-8888---------66-6666-| 
Eb|--------11-1111-------------------------------88-8888---------| 

Break:
Gb|--------------------------------------------------| 
Db|--------------------------------------------------| 2x 
Ab|-5-5---5-5-----------333--5-5---5-5-------888-----| 
Eb|-----------66666-111----------------66666-----888-| 

Intro:
Gb|-77-99-1010-1212-1414-1212-1010-99-|--7--| 
Db|-00-00--0-0--0-0--0-0--0-0--0-0-00-3--0--| 
Ab|-----------------------------------x-----| 
Eb|-----------------------------------|-----| 

Verse:
Gb|----------------------------------------------33-| 
Db|----88-77-55-33-55-33-22----88-77-55-33-55-33----| 2x
Ab|-55----------------------55----------------------| 
Eb|-------------------------------------------------| 

Outro:
Gb|-------------------------------------------------------------------------------| 
Db|----88-77---8/10-8-10-10/12-10-12-12/14-12-14-14/15-14-15-15/17-15-14-15-14-12-| 
Ab|-55-------8--------------------------------------------------------------------| 
Eb|-------------------------------------------------------------------------------| 

Gb|-----------------------------------------------------------------------------15~-| 
Db|-15-14-12--15-14-12--15-14-12--15-14-12--15-14-12--15-14-12--------------15~-----| 
Ab|------------------------------------------------------------15-13-12-13~---------| 
Eb|---------------------------------------------------------------------------------| 

comments
We did not receive enough feedback on this tab! Please rate:
print report bad tab
1 2 3 4 5
I want to post or [tab]
guest
You may want to rate the tab now too:
select rating
Please do not post tabs as comments. Select "correction" instead!