Oops, an error
Loading. Please wait.

No Paradise bass

2,362 views 1 this week
4 commentsread comments
1 2 3 4 5
x 4
add to favorites
×
Save as Personal and add changes to this tab that will be seen only by you. Learn more ›
×
You can save this tab as Personal to edit and correct it or add notes. All changes will be seen only by you. Learn more »
launch autoscroll
font size
0
reset
guitar tuner
edit
Autoscroll
slow
fast
+/-
esc
set tempo
stop
No Paradise - Anti-Flag

I'm not quite sur about this song... it's got some really quiet and some really loud 
in it so i may have missed something.

Intro:
G|-----------------------7-|
D|-----------4-4-5-5-7-7---|
A|---------5---------------|
D|-0--0--0-----------------|

Verse:
G|----------------------|
D|----------------------|
A|--No-Bass-------------|
D|-----------------7/12-|

Pre-Chorus:
G|-----------------------------------------------------------------|
D|-----------------------------------------------------------------|
A|-------------------------5-5-5-5---------------------------------|
D|-5-5-5-5-7-7-7-7-9-9-9-9---------5-5-5-5-4-4-4-4-5-5-5-5-7-7-7-7-|

Chorus:
G|---------------------------------|
D|-------------4h5-7-----------5-5-|
A|-5-5-5-5-5-5---------------------|x2
D|-------------------9-7-7-5-5-----|

G|------------------------------------------------------------------------|
D|-------------4h5-7---------------------------------------5-5-5-5-7-7-7-7|
A|-5-5-5-5-5-5------------------------------------------------------------|
D|-------------------9-7-7-5-5-5-5-5-5-5-5-7-7-7-7-7-7-7-7----------------|

Post-Chorus:
G|--------------------------------------------------------------------|
D|--------------------------------------------------------------------|
A|--------------------------------------------------------------------|x2
D||-0-0-0-0-0-0-0-0-0-0-0-0-0-0-0-0-4-4-4-4-4-4-4-4-5-5-5-5-5-5-5-5---|

Verse:
G|--------------------------------------------------------|
D|--------------------------------------------------------|
A|-------------------------------------------------5-5----|
D||-0-0-0-0-0-0-0-0-9-9-9-9-9-9-9-9-4-4-4-4-5-5-7-7-------|

G|-----------------------------------------------------|
D|---------------------------------4-4-4-2h4-5-4h5-7---|
A|-5-5-5-5-5-5-5-5-----------------------------------5-|
D|-----------------9-9-9-9-9-9-9-9---------------------|

Pre-Chorus:
G|-----------------------------------------------------------------|
D|-----------------------------------------------------------------|
A|-------------------------5-5-5-5---------------------------------|
D|-5-5-5-5-7-7-7-7-9-9-9-9---------5-5-5-5-4-4-4-4-5-5-5-5-7-7-7-7-|


Chorus:
G|---------------------------------|
D|-------------4h5-7-----------5-5-|
A|-5-5-5-5-5-5---------------------|x2
D|-------------------9-7-7-5-5-----|

G|------------------------------------------------------------------------|
D|-------------4h5-7---------------------------------------5-5-5-5-7-7-7-7|
A|-5-5-5-5-5-5------------------------------------------------------------|
D|-------------------9-7-7-5-5-5-5-5-5-5-5-7-7-7-7-7-7-7-7----------------|

Post-Chorus:
G|-----------------------------------------------------------------|
D|-----------------------------------------------------------------|
A|-----------------------------------------------------------------|x2
D|-0-0-0-0-0-0-0-0-0-0-0-0-0-0-0-0-4-4-4-4-4-4-4-4-5-5-5-5-5-5-5-5-|

Bridge:
G|-----------------------------------------------------------------|
D|-----------------------------------------------------------------|
A|-------------------------------------------------5-5-5-5-5-5-5-5-|x2
D|-0-0-0-0-0-0-0-0-9-9-9-9-9-9-9-9-4-4-4-4-5-5-7-7-----------------|

G|-------------------------------------------------7-7-7---7-|
D|---------------------------------4-4-4-4-5-5-7-7-------7---|
A|-----------------------------------------------------------|
D|-0-0-0-0-0-0-0-0-9-9-9-9-9-9-9-9---------------------------|

Chorus:
G|---------------------------------|
D|-------------4h5-7-----------5-5-|
A|-5-5-5-5-5-5---------------------|x4
D|-------------------9-7-7-5-5-----|

Outro:
G|-----------------------7-|
D|-----------4-4-5-5-7-7---|
A|---------5---------------|
D|-0--0--0-----------------|

Comments, Requests, Questions please mail to jibjab@got.net

            
            
Suggest correction
Creating personal tab
Creating personal tab
You can edit any tab online and save it as your Personal.

You can edit, replace or remove any tab part or add personal notes – all changes will be seen only by you.

Personal tabs can be accessed anytime from any device, even offline.
Learn more »
comments
print report bad tab
4 comments total. Showing first comments.
0 reply
ratmblink123 70 Sep 03, 2007 07:04 PM

nice tab dude. I dunno if #2 plays in drop d... he might just play the octave note (fifth fret on the a string) but who am I to judge? The tab works, and its a good one. 5 stars

0 reply
MxSam 52 Oct 26, 2007 04:02 AM

Cool nice tab, but chris plays standard tuning dropped half a step.

0 reply
182pbass41 41 Dec 17, 2007 06:27 AM

This is a nice tab!!
Great work.. you've done really great tabbin out For Blood and Empire. I like all your bass
tabs.

Few problems with this one.

Chris plays in Eb.

Easy fix though. All your tabs in Standard, just drop
the number by one and it will be how Chris plays it.
For this tab in D, add one to each fret number.

Those
numbers only will work if you tune to Eb.

I dont see a problem with how your wrote em though


GREAT WORK!!! i
dont mean to criticise, if it sounds like it I'm sorry and i didnt mean too.

guest
You may want to rate the tab now too:
select rating
Wanna post a correction for this tab? Suggest correction