Oops, an error
Loading. Please wait.

Post-War Breakout bass

version 1
version 1

Whole song

Interactive

1,823 views 1 this week
2 commentsread comments
1 2 3 4 5
1 last vote to show rating
add to favorites
×
Save as Personal and add changes to this tab that will be seen only by you. Learn more ›
×
You can save this tab as Personal to edit and correct it or add notes. All changes will be seen only by you. Learn more »
launch autoscroll
font size
0
reset
guitar tuner
edit
Autoscroll
slow
fast
+/-
esc
set tempo
stop
Post-war Breakout
Anti-Flag

Intro Pt 1
G|----------|----------|
D|----------|----------|
A|----------|----------|
E|--18/6----|--18/6----|

Intro Pt. 2
G|------------------------|------------------------|
D|-------------333-364----|-------------3~~--------|
A|------4666-46-------6/8-|------4666-46-----------|
E|-666-6------------------|-666-6------------------|

Chorus
G|---------------------|---------------------|
D|---------------------|------11111-3-3-3-3--|
A|-11111---------------|-11111---------------|
E|------00000-11111-44-|-------------1-1-1-1-|

G|---------------------|--------------------|
D|---------------------|------11111---------|
A|-11111---------------|-11111--------------|
E|------00000-11111-44-|-----------11111111-| 

Verse 1
G|-----------------------|-----------------------|
D|-----------3--36464----|-----------------------|
A|-----46--46--------6/8-|-----46--46------------|
E|-6--6------------------|-6--6------1-111-4-444-|

G|------------------643--|-----------------------|
D|-----------3--363----6-|-----------------------|
A|-----46--46------------|-----46--46------------|
E|-6--6------------------|-6--6------1-111-4-444-|

Pre-Chorus
G|--------------------|--------------------|
D|-4-4444444-3-333333-|-234-4~----34343434-|
A|--------------------|--------------------|
E|--------------------|--------------------|

Chorus
G|---------------------|---------------------|
D|---------------------|------11111-3-3-3-3--|
A|-11111---------------|-11111---------------|
E|------00000-11111-44-|-------------1-1-1-1-|

G|---------------------|--------------------|
D|---------------------|------11111---------|
A|-11111---------------|-11111--------------|
E|------00000-11111-44-|-----------11111111-| 

Verse 2
G|----------|-------------|-------------|----------|
D|----------|-------------|-------------|----------|
A|----------|-------------|-------------|----------|
E|----6~----|----6x66~----|----6x66~----|----6\----|

Pre-chorus
Chorus
Chorus (During guitar solo)

Last Chorus
G|--------------------24-|
D|------------------34---|
A|-11111-----------------|
E|------00000-11111------|

Ending
G|--------------|
D|--------------|
A|----------20~-|
E|-6/18~----18~-|

Add my Myspace:
Myspace.com/Jake_bums_sheep_x
I'll add you fer shure and we can bum over the interweb lolz

            
            
Suggest correction
Creating personal tab
Creating personal tab
You can edit any tab online and save it as your Personal.

You can edit, replace or remove any tab part or add personal notes – all changes will be seen only by you.

Personal tabs can be accessed anytime from any device, even offline.
Learn more »
Give kudos to tab author, rate the tab!
1 2 3 4 5
comments
print report bad tab
2 comments total.
+1 reply
rocker_d.o 10 Mar 09, 2008 05:45 PM

you're missing the little decending run at the end of the second bar in the chorus but other than that great job!

0 reply
Mr. Thingy 260 Sep 07, 2008 11:11 PM

Nice, but this is in half-step tuning and can't be played this way (there's a low Eb in a lot of places).

5 stars though.

guest
You may want to rate the tab now too:
select rating
Wanna post a correction for this tab? Suggest correction