Oops, an error
Loading. Please wait.

Press Corpse Bass Tab

version 1
version 1

Whole song

Interactive

44,988 views 42 this week
8 commentsread comments
1 2 3 4 5
x 24
add to favorites
launch autoscroll
font size
0
reset
guitar tuner
Autoscroll
slow
fast
+/-
esc
set tempo
stop
Help us to improve Ultimate-Guitar.com Take our survey!
×
Author
Difficulty
intermediate
number 2 off the their new album! some nice stuff for bass...

[Intro]

G|------------------|
D|------------------|
A|-----------8-6----|
E|-6-6-6-6-6-----9-6|

[Verse]

G|---------------------------------------------------------------|
D|-------------------------------------3-3-4-4-6-----3---3-------|
A|---8-6-8-9-8-6-----8-6-8-9-8-6---4-4-------------6---6---6-4-3-|
E|-6-------------9-6-------------6---------------4---------------|(x2)

G|-----------------------------------------------------------------|
D|-----------------------------------------------------------------|
A|---------------------------------1-1-1-1-1-1-1-1-4-4-4-4-4-4-4-4-|
E|-2-2-2-2-2-2-2-2-2-2-2-2-2-2-2-2---------------------------------|

G|---------------------------------------------------------------|
D|-------------------------------------3-3-4-4-6-----3---3-------|
A|---8-6-8-9-8-6-----8-6-8-9-8-6---4-4-------------6---6---6-4-3-|
E|-6-------------9-6-------------6---------------4---------------|(x2)

[Pre-Chorus]

G|---------------3---------------3---------------3-----------------------|
D|-3-4-3-4-6-4-6---6-4-3-4-6-4-6---6-4-3-4-6-4-6---6-4-3-----------------|
A|---------------------------------------------------------6-4-3-4-3-4-3-|
E|-------------------------------------------------------4---------------|

G|---------------3---------------3---------------3-------------------|
D|-3-4-3-4-6-4-6---6-4-3-4-6-4-6---6-4-3-4-6-4-6---6-4-3-------------|
A|-------------------------------------------------------------------|
E|-------------------------------------------------------4-4-4-4-4-4-|

[Chorus]

G|-----------------------------------------------------------------|
D|-------------------------6-4-3-----------3-4-4-4-4-4-3-4-6-6-6-6-|
A|-----------------4-4-4-4---------------6-------------------------|
E|-6-6-6-6-6-6-6-6---------------4-4-4-4---------------------------|(x2)

G|------------------|
D|------------------|
A|-----------8-6----|
E|-6-6-6-6-6-----9-6|

[Verse]

G|---------------------------------------------------------------|
D|-------------------------------------3-3-4-4-6-----3---3-------|
A|---8-6-8-9-8-6-----8-6-8-9-8-6---4-4-------------6---6---6-4-3-|
E|-6-------------9-6-------------6---------------4---------------|(x2)

G|-----------------------------------------------------------------|
D|-----------------------------------------------------------------|
A|---------------------------------1-1-1-1-1-1-1-1-4-4-4-4-4-4-4-4-|
E|-2-2-2-2-2-2-2-2-2-2-2-2-2-2-2-2---------------------------------|

G|---------------------------------------------------------------|
D|-------------------------------------3-3-4-4-6-----3---3-------|
A|---8-6-8-9-8-6-----8-6-8-9-8-6---4-4-------------6---6---6-4-3-|
E|-6-------------9-6-------------6---------------4---------------|(x2)

[Pre-Chorus]

G|---------------3---------------3---------------3-----------------------|
D|-3-4-3-4-6-4-6---6-4-3-4-6-4-6---6-4-3-4-6-4-6---6-4-3-----------------|
A|---------------------------------------------------------6-4-3-4-3-4-3-|
E|-------------------------------------------------------4---------------|

G|---------------3---------------3---------------3-------------------|
D|-3-4-3-4-6-4-6---6-4-3-4-6-4-6---6-4-3-4-6-4-6---6-4-3-------------|
A|-------------------------------------------------------------------|
E|-------------------------------------------------------4-4-4-4-4-4-|

[Chorus]

G|-----------------------------------------------------------------|
D|-------------------------6-4-3-----------3-4-4-4-4-4-3-4-6-6-6-6-|
A|-----------------4-4-4-4---------------6-------------------------|
E|-6-6-6-6-6-6-6-6---------------4-4-4-4---------------------------|(x2)

G|------------------|
D|------------------|
A|-----------8-6----|
E|-6-6-6-6-6-----9-6|

[Bridge]

G|---------------------------------------------------------------|
D|-------------------------------------3-3-4-4-6-----3---3-------|
A|---8-6-8-9-8-6-----8-6-8-9-8-6---4-4-------------6---6---6-4-3-|
E|-6-------------9-6-------------6---------------4---------------|(x4)

G|-------------------------------------------|
D|-------------------------------------------|
A|---1--4--------1------------1--4-------1---|
E|-2-------4--2-----4---1--2-------4--2-----4|

G|-----------------------------------------------------------|
D|-----------------------------------------------------------|
A|-----------------1-1-1-1-4-4---------------------1-1-1-1---|
E|-2-2-2-2-2-2-2-2-------------4-4-2-2-2-2-2-2-2-2---------4-|

[Chorus]

G|-----------------------------------------------------------------|
D|-------------------------6-4-3-----------3-4-4-4-4-4-3-4-6-6-6-6-|
A|-----------------4-4-4-4---------------6-------------------------|
E|-6-6-6-6-6-6-6-6---------------4-4-4-4---------------------------|(x2)

G|------------------|
D|------------------|
A|-----------8-6----|
E|-6-6-6-6-6-----9-6|
Suggest correction
comments
print report bad tab
8 comments total. Showing first comments.
+1 reply
magimintage 10 Jun 22, 2006 08:58 PM

Seems perfect to me. Great bass on this song. Props man.

+1 reply
tasmo 92 Jul 15, 2006 11:30 AM

such a great song! and well tabbed but i think the chorus has double the amount of picking to whats tabbed. also, theres a note missing in the chorus, after the first bit with 6th fret on the first string, it goes down to 4th fret on first string before it goes to 4th fret on second string.

0 reply
Mr_Jubby_Jubs 40 Aug 29, 2006 01:11 PM

this tabs great

guest
You may want to rate the tab now too:
select rating
Wanna post a correction for this tab? Suggest correction