Oops, an error
Loading. Please wait.
We have an official Press Corpse tab made by UG professional guitarists. Check out the tab »
×
6,537 views 3 this week
1 commentread comment
1 2 3 4 5
x 6
add to favorites
×
Save as Personal and add changes to this tab that will be seen only by you. Learn more ›
×
You can save this tab as Personal to edit and correct it or add notes. All changes will be seen only by you. Learn more »
launch autoscroll
font size
0
reset
guitar tuner
edit
Autoscroll
slow
fast
+/-
esc
set tempo
stop
Author
Difficulty
Intro: (1X)

G|------------|
D|------31----|
A|-11111--41--|
E|------------|

Verse: (1X)

G|--------------------------------66---------------------------------66--|
D|--3134314-3134314---334466--4-4------3134314-3134314---334466--4-4-----|
A|-1-------1--------44---------6-6----1-------1--------44---------6-6----|
E|--------------------------44---------------------------------44--------|

G|-----------------------------------|
D|-----------------------------------|
A|-----------------1111111144444444--|
E|-2222222222222222------------------|

G|--------------------------------66---------------------------------66--|
D|--3134314-3134314---334466--4-4------3134314-3134314---334466--4-4-----|
A|-1-------1--------44---------6-6----1-------1--------44---------6-6----|
E|--------------------------44---------------------------------44--------|

G|-----31------31------31---------------31------31------31----|
D|---31--43--31--43--31--43--4-6------31--43--31--43--31--43--|
A|----------------------------6-63----------------------------|
E|-22------22------22------44-----6-22------22------22--------|

G|--------------|
G|--------------|
A|--------------|
E|-4-4-4-4-4-4--|

Chorus: (1X)

G|----------------------------------------------------------------6--|
D|-------------------------66644433-----------333--444444346666666---|        2 Times
A|----------------344444444----------------666---66------------------|
E|-666666666666646-----------------44444444--------------------------|

G|------------|
D|------31----|
A|-11111--41--|
E|------------|

Verse: (1X)

G|--------------------------------66---------------------------------66--|
D|--3134314-3134314---334466--4-4------3134314-3134314---334466--4-4-----|
A|-1-------1--------44---------6-6----1-------1--------44---------6-6----|
E|--------------------------44---------------------------------44--------|

G|-----------------------------------|
D|-----------------------------------|
A|-----------------1111111144444444--|
E|-2222222222222222------------------|

G|--------------------------------66---------------------------------66--|
D|--3134314-3134314---334466--4-4------3134314-3134314---334466--4-4-----|
A|-1-------1--------44---------6-6----1-------1--------44---------6-6----|
E|--------------------------44---------------------------------44--------|

G|-----31------31------31---------------31------31------31----|
D|---31--43--31--43--31--43--4-6------31--43--31--43--31--43--|
A|----------------------------6-63----------------------------|
E|-22------22------22------44-----6-22------22------22--------|

G|--------------|
G|--------------|
A|--------------|
E|-4-4-4-4-4-4--|

Chorus: (1X)

G|----------------------------------------------------------------6--|
D|-------------------------66644433-----------333--444444346666666---|        2 Times
A|----------------344444444----------------666---66------------------|
E|-666666666666646-----------------44444444--------------------------|

G|------------|
D|------31----|
A|-11111--41--|
E|------------|

Break: (1X)

G|--------------------------------66---------------------------------66--|
D|--3134314-3134314---334466--4-4------3134314-3134314---334466--4-4-----|    2 Times
A|-1-------1--------44---------6-6----1-------1--------44---------6-6----|
E|--------------------------44---------------------------------44--------|

G|----------------|
D|----------------|     5 Times
A|-------1^-4^----|
E|-2^---------4^--|

G|-------------|
D|-------------|
A|-------1^-4--|
E|-2^----------|

Chorus: (1X)

G|----------------------------------------------------------------6--|
D|-------------------------66644433-----------333--444444346666666---|        2 Times
A|----------------344444444----------------666---66------------------|
E|-666666666666646-----------------44444444--------------------------|

G|------------|
D|------31----|
A|-11111--41--|
E|------------|

            
            
Suggest correction
Creating personal tab
Creating personal tab
You can edit any tab online and save it as your Personal.

You can edit, replace or remove any tab part or add personal notes – all changes will be seen only by you.

Personal tabs can be accessed anytime from any device, even offline.
Learn more »
comments
print report bad tab
1 comment total.
0 reply
Abong 384 Jun 04, 2009 03:19 AM

You have all the right notes, but I find it a bit hard to play in that position, if you move it all down a string and start on the 6th fret on your E it makes it a bit easier on the hands, I find. Just a suggestion :)

guest
You may want to rate the tab now too:
select rating
Wanna post a correction for this tab? Suggest correction