Oops, an error
Loading. Please wait.

Press Corpse Bass Tab

version 3
version 3

Whole song

Interactive

11,380 views 9 this week
3 commentsread comments
1 2 3 4 5
excellent!
x 3
add to favorites
launch autoscroll
font size
0
reset
guitar tuner
Tab Pro tools
  • play this tab
  • loop segment
  • change instrument
  • show fretboard
  • metronome
×
Best way to learn
"Press Corpse"
Autoscroll
slow
fast
+/-
esc
set tempo
stop
Contributor
Difficulty
intermediate
- Anti-Flag - The Press Corpse
- Tabbed by: Pacu, bassist from a brazilian punk rock band called PunkAss.
- I have seen in the other tabs about this song some mistakes and i just wanted to fix 
So, I guess that now the tab is alright. Enjoy it.

__________________


Intro [1x]
G|-----------|
D|------31---|
A|-11111--31-|
E|-----------|

Verse [1x]
G|----------------------------------6-------------------------------------|
D|--313431---313431----334466---3-3----313431---313431----334466---3-3----|
A|-1------4-1------4-44--------6-6-6--1------4-1------4-44--------6-6-643-|
E|----------------------------4----------------------------------4--------|

G|-------------------------------------|
D|-------------------------------------|
A|-------------------1-111111-4-444444-|
E|-2-222222-2-222222-------------------|

G|----------------------------------6-------------------------------------|
D|--313431---313431----334466---3-3----313431---313431----334466---3-3----|
A|-1------4-1------4-44--------6-6-6--1------4-1------4-44--------6-6-643-|
E|----------------------------4----------------------------------4--------|

G|-----31------31------31---------------31------31------31------------|
D|--431--43-431--43-431--43-64-4-----431--43-431--43-431--43----------|
A|----------------------------6-642-----------------------------------|
E|-2-------2-------2-------4--------2-------2-------2--------4-4-4444-|

Chorus [2x]
G|------------------------------------------------------------------------|
D|---------------------------66644433-----------33-343-44-444-34-66-66643-|
A|-----------------3-4-444444----------------666---66---------------------|
E|-6-666666-6-66646------------------4-4444444----------------------------|

Intro [1x]
G|-----------|
D|------31---|
A|-11111--31-|
E|-----------|

Verse [1x]
Chorus [1x]
Intro [1x]

Bridge [1x]
G|----------------------------------6-|------|-------------------------------------|------|
D|--313431---313431----334466---3-3---|------|--313431---313431----334466---3-3----|------|
A|-1------4-1------4-44--------6-6-6--|-[3x]-|-1------4-1------4-44--------6-6-643-|-[1x]-|
E|----------------------------4-------|------|---------------------------4---------|------|

G|------------------------------------|------|
D|------------------------------------|------|
A|---1~4~-----1~-------1~4~-----1~----|-[1x]-|
E|-2~----4~-2~--4~1~-2~----4~-2~--4~~-|------|

G|--------------------------------------------------------------------|
D|--------------------------------------------------------------------|
A|-------------------1-111111-4-44-------------------------1-111111---|
E|-2-222222-2-222222---------------4-44--2-222222-2-222222----------4-|

Chorus [1x]
G|-----|------------------------------------------------------------------------|
D|-----|---------------------------66644433-----------33-343-44-444-34-66-66643-|
A|-----|-----------------3-4-444444----------------666---66---------------------|
E|-12/-|-6-666666-6-66646------------------4-4444444----------------------------|

G|------------------------------------------------------------------------|
D|---------------------------66644433-----------33-343-44-444-34-66-66643-|
A|-----------------3-4-444444----------------666---66---------------------|
E|-6-666666-6-66646------------------4-4444444----------------------------|

Ending [1x]
G|-----------|
D|------31---|
A|-11111--31-|
E|-----------|
comments
We did not receive enough feedback on this tab! Please rate:
print report bad tab
1 2 3 4 5
3 comments total.
0 reply
FBassman wrote on January 26 2009, 05:18 pm

1. The slide before the chorus should be before chorus 2 not 3.

verse should go :
G|----------------------------------66------------------------------------|
D|--313431---313431----334466--64-4----313431---313431----334466--64-4----|
A|-1------4-1------3-44----------6-6--1------4-1------4-44----------6-64--|
E|----------------------------4----------------------------------4------4-|

+1 reply
FBassman wrote on January 26 2009, 05:18 pm

Sorry

G|----------------------------------66------------------------------------|
D|--313431---313431----334466--64-4----313431---313431----334466--64-4----|
A|-1------4-1------3-44----------6-6--1------4-1------3-44----------6-64--|
E|----------------------------4----------------------------------4------4-|

0 reply
pacu wrote on January 27 2009, 03:55 pm

i guess its just small variations you know... depending of the way you figure out your bass sound and amp this variations dont matter i guess man. anyway, thanks

I want to post or [tab]
guest
You may want to rate the tab now too:
select rating
Please do not post tabs as comments. Select "correction" instead!