Oops, an error
Loading. Please wait.

Rank-N-File bass

version 1
version 1

Whole song

Interactive

2,602 views 1 this week
1 commentread comment
1 2 3 4 5
x 7
add to favorites
×
Save as Personal and add changes to this tab that will be seen only by you. Learn more ›
×
You can save this tab as Personal to edit and correct it or add notes. All changes will be seen only by you. Learn more »
launch autoscroll
font size
0
reset
guitar tuner
edit
Autoscroll
slow
fast
+/-
esc
set tempo
stop
Difficulty
Song: Rank-N-File
Band: Anti-Flag
Tunning: Standard Tuning EADG
Tabbed by: Brian
comments: Any questions email me at leneb29@aol.com

Key
\-Slide down
/- Slide up
*-Hold out

Guitar starts.  Bass comes in at 0.10 seconds.

Intro 2x (second time no slide from 13 to 6)
G|-------------------------------------------------------------|
D|---------------------8-6-5------------------5-3-1------------|
A|--13\6--666--666--6---------3--333--333--3-------------------|
E|-------------------------------------------------------------|

G|-------------------------------------------------------------|
D|--------------1-3-5------------------------------------------|
A|--1-111-111-1--------------6--8------------------------------|
E|---------------------4444------------------------------------|

Verse 2x
G|-------------------------------------------------------------|
D|-------------------------------------------------------------|
A|--6-(Rest)--33333333--11111111-------------------------------|
E|---------------------------------44444444--------------------|

Pre-Chorus
G|-------------------------------------------------------------|
D|-------------------------------------------------------------|
A|--3333--5555--6666666-5--3333--5555--------------------------|
E|-------------------------------------------------------------|

Chorus
G|-------------------------------------------------------------|
D|-------5-6-8-6-5-6-------3-5-6-5-3-5-------1-3-5-3-1---------|
A|--666---------------333---------------111--------------------|
E|-------------------------------------------------------------|

G|-------------------------------------------------------------|
D|-----8-6-5-6-5-3-3-------------------------------------------|
A|-------------------------------------------------------------|
E|--4----------------------------------------------------------|

G|-------------------------------------------------------------|
D|-------5-6-8-6-5-6-------3-5-6-5-3-5-------------------------|
A|--666---------------333---------------1----------------------|
E|-------------------------------------------------------------|

Intro 2x
G|-------------------------------------------------------------|
D|------------------8-6-5------------------5-3-1---------------|
A|--6--666--666--6---------3--333--333--3----------------------|
E|-------------------------------------------------------------|

G|-------------------------------------------------------------|
D|--------------1-3-5------------------------------------------|
A|--1-111-111-1--------------6--8------------------------------|
E|---------------------4444------------------------------------|

Verse 2 2x
G|-------------------------------------------------------------|
D|-------------------------------------------------------------|
A|--66-6-66-6-66-6-66-6---33333333--11111111-------------------|
E|--------------------------------------------44444444---------|

Pre-Chorus
G|-------------------------------------------------------------|
D|-------------------------------------------------------------|
A|--3333--5555--6666666-5--3333--5555--------------------------|
E|-------------------------------------------------------------|

Chorus 2x
G|-------------------------------------------------------------|
D|-------5-6-8-6-5-6-------3-5-6-5-3-5-------1-3-5-3-1---------|
A|--666---------------333---------------111--------------------|
E|-------------------------------------------------------------|

G|-------------------------------------------------------------|
D|-----8-6-5-6-5-3-3-------------------------------------------|
A|-------------------------------------------------------------|
E|--4----------------------------------------------------------|

Bridge
G|-------------------------------------------------------------|
D|----------(Stacato)------------------------------------------|
A|--6*----6-6-6-6-6-6--1*--------------------------------------|
E|-------------------------------------------------------------|

No bass when guitar and vocals play. 2:44-2:54

G|-------------------------------------------------------------|
D|-------------------------------------------------------------|
A|--1/6*-------3*--------1-------------------------------------|
E|-------------------------------------------------------------|

Chorus 2x
G|-------------------------------------------------------------|
D|-------5-6-8-6-5-6-------3-5-6-5-3-5-------1-3-5-3-1---------|
A|--666---------------333---------------111--------------------|
E|-------------------------------------------------------------|

G|-------------------------------------------------------------|
D|-----8-6-5-6-5-3-3-------------------------------------------|
A|-------------------------------------------------------------|
E|--4----------------------------------------------------------|

End
G|-------------------------------------------------------------|
D|-------------------------------------------------------------|
A|--6*---------------------------------------------------------|
E|-------------------------------------------------------------|

I'm almost 100% on this.  At the end of the Pre-chorus there might be a set of 6's.  
is an easy song to learn.  Listen for the tempo and you'll get it.  This is my first time 
to tab so send comments.

            
            
Suggest correction
Creating personal tab
Creating personal tab
You can edit any tab online and save it as your Personal.

You can edit, replace or remove any tab part or add personal notes – all changes will be seen only by you.

Personal tabs can be accessed anytime from any device, even offline.
Learn more »
comments
print report bad tab
1 comment total.
0 reply
Corpse_Sledding 10 Aug 17, 2006 08:07 PM

I would suggest changing the difficulty to Intermediate actually. That chorus can get pretty frustrating.

guest
Wanna post a correction for this tab? Suggest correction