Oops, an error
Loading. Please wait.

Red White And Brainwashed Bass Tab

version 2
version 2

Whole song

1,030 views 9 this week
1 commentread comment
1 2 3 4 5
excellent!
x 3
add to favorites
launch autoscroll
font size
0
reset
guitar tuner
Autoscroll
slow
fast
+/-
esc
set tempo
stop
Help us to improve Ultimate-Guitar.com Take our survey!
×
Tabbed By : Xcrimson_ghostX
e-mail: invisibleXman900@aim.com

Tuning: standard

intro
G|----------------------------------------------------------------------|
D|-6666666666666666666666666--------6666666666666666666666666-----------|
A|--------------------------77777770-------------------------777777770--|
E|----------------------------------------------------------------------|

G|---------------------8-8-8----------------------------8--8-----------|
D|-66666666666666666666-6-6---------66666666666666666666-66-6--8-8-9---|
A|--------------------------77777770-------------------------77-7-7-7--|
E|---------------------------------------------------------------------|

G|----8-------8---11----8-------8---11----8-------8---11----8-------8---11--|
D|--66-6--9-88-899--9-66-6--9-88-899--9-66-6--9-88-899--9-66-6--9-88-899--9-|
A|------77-7--------------77-7--------------77-7--------------77-7----------|
E|--------------------------------------------------------------------------|

verse
G|--------------------------------------------------------------------|
D|--6666----888899996666----888899996666----888899996666----88889999--|
A|------7777------------7777------------7777------------7777----------|
E|--------------------------------------------------------------------|

chorus "red white and brainwashed..."
G|---------------------------------------------|
D|---------------------------------------------|
A|-----10108866--10108866--10108866--10108866--|
E|--77---------77--------77--------77----------|

verse

first line of intro then

bridge x2
G|-------------------------------------------------------------------------|
D|--------------------------------2244-------------------------------2244--|
A|--6-6-6666-66-6666-4-4-444----44-----6-6-6666-66-6666-4-4-444----44------|
E|--------------------------2-22-------------------------------2-22--------|

verse
chorus
verse
chorus
verse

ending
G|-------------|
D|-6-----6666--|
A|-------------|
E|-------------|


| /  slide up
| \  slide down
| h  hammer-on
| p  pull-off
| ~  vibrato
| +  harmonic
| x  Mute note
===============================================================================
Suggest correction
Give kudos to tab author, rate the tab!
1 2 3 4 5
comments
print report bad tab
1 comment total.
0 reply
Sevenfold-666 10 wrote on August 17 2006, 12:24 pm

Nice tab man Anti-flag kicks ass :p

guest
You may want to rate the tab now too:
select rating
Please do not post tabs as comments. Select "correction" instead!