Oops, an error
Loading. Please wait.

Sold As Freedom bass

version 1
version 1

Whole song

Interactive

601 views 1 this week
no commentswrite comment
1 2 3 4 5
3 more votes to show rating
add to favorites
×
Save as Personal and add changes to this tab that will be seen only by you. Learn more ›
×
You can save this tab as Personal to edit and correct it or add notes. All changes will be seen only by you. Learn more »
launch autoscroll
font size
0
reset
guitar tuner
edit
Autoscroll
slow
fast
+/-
esc
set tempo
stop
Author
Difficulty
- Anti-Flag - Sold As Freedom
- Tabbed by Pacu, bassist from a brazilian punk rock band that is called PunkAss.
- That's not a hard song to play but you have to listen to get that right.

__________
Intro
Gb|----------------------|----|
Db|-----------7--7--7--7-|----|
Ab|-----3----------------|-2x-|
Eb|-1-0---3-55-55-55-55--|----|

Verse
Gb|------------------------------|----|
Db|----------------------7-----7-|----|
Ab|--------3333-------7-----7----|-3x-|
Eb|-1111000----3333-55-55-55-55--|----|

Gb|----------------------------------|----|
Db|----------------------------------|----|
Ab|--------3333----------------------|-3x-|
Eb|-1111000----3333-5555555555555555-|----|

Chorus
Gb|----------------------------------|----|
Db|---------------------77--7755-----|----|
Ab|-888877775555777---77--77----7755-|-3x-|
Eb|----------------5-5---------------|----|

Gb|-----------------------------------------------------|----|
Db|----------1010----1010----------------1212----1212---|----|
Ab|------1010----1010----10----------1212----1212----12-|-1x-|
Eb|-8-888-------------------10-101010-------------------|----|

Verse
Gb|------------------------------|----|
Db|----------------------7-----7-|----|
Ab|--------3333-------7-----7----|-3x-|
Eb|-1111000----3333-55-55-55-55--|----|

Gb|----------------------------------|----|
Db|----------------------------------|----|
Ab|--------3333----------------------|-3x-|
Eb|-1111000----3333-5555555555555555-|----|

Chorus
Gb|----------------------------------|----|
Db|---------------------77--7755-----|----|
Ab|-888877775555777---77--77----7755-|-3x-|
Eb|----------------5-5---------------|----|

Gb|-----------------------------------------------------|----|
Db|----------1010----1010----------------1212----1212---|----|
Ab|------1010----1010----10----------1212----1212----12-|-1x-|
Eb|-8-888-------------------10-101010-------------------|----|

Bridge I
Gb|------------------------|----|
Db|---32----32----32---325-|----|
Ab|-----5-----5-----5------|-1x-|
Eb|-1-----0-----5-----3----|----|

Gb|--------------------------|----|
Db|---32----32----32---------|----|
Ab|-----5-----5-----5--------|-1x-|
Eb|-1-----0-----5-----3~~/-\-|----|

Bridge II
Gb|---------------------|----|
Db|---------------------|----|
Ab|---------------------|-4x-|
Eb|-1111-0000-5555-3333-|----|

Ending 
Gb|------------------------------|----|
Db|-------------------7--7--7--7-|----|
Ab|--------3333------------------|-3x-|
Eb|-1111000----3333-55-55-55-55--|----|

Gb|---------------------------|----|
Db|---------------------------|----|
Ab|--------3333---------------|-1x-|
Eb|-1111000----3333-5~~~~~~~~-|----|

            
            
Suggest correction
Creating personal tab
Creating personal tab
You can edit any tab online and save it as your Personal.

You can edit, replace or remove any tab part or add personal notes – all changes will be seen only by you.

Personal tabs can be accessed anytime from any device, even offline.
Learn more »
Give kudos to tab author, rate the tab!
1 2 3 4 5
comments
print report bad tab
guest
You may want to rate the tab now too:
select rating
Wanna post a correction for this tab? Suggest correction