Oops, an error
Loading. Please wait.

Spazs House Destruction Party bass

version 1
version 1

Whole song

Interactive

3,223 views 3 this week
no commentswrite comment
1 2 3 4 5
x 5
add to favorites
×
Save as Personal and add changes to this tab that will be seen only by you. Learn more ›
×
You can save this tab as Personal to edit and correct it or add notes. All changes will be seen only by you. Learn more »
launch autoscroll
font size
0
reset
guitar tuner
edit
Autoscroll
slow
fast
+/-
esc
set tempo
stop
Author
Difficulty
There wasn't a bass tab for this song, so I decided to put one. I didn't tab this, just f.y.i.

NOTE: This is the live version off of the album "Mobilize", so it wont be exactly the 
as the version from "Underground Network"

Half-step tuning

intro
Gb|----------------------|
Db|-5~------------5~-----|
Ab|---5~------------5~---|
Eb|-----5~-7~-5-3-----5>-|

main riff
Gb|-------------------------------------------------------------------|
Db|-----55-44---44-55-77------------55-44------------55-44---44-55-77-|
Ab|---55------55-----------77-55-44-------77-55----55------55---------|
Eb|-33-------------------55----------------------33-------------------|

(continued from above)
Gb|-----------|
Db|-------7---|
Ab|---7-------|
Eb|-55--55----|

repeat above riff twice, then verse
Gb|----------------------------------------------------------------------|
Db|-----------44-55-7-5555555-77-55-44------------44-55-7-------7------7-|
Ab|---------55------------------------5---------55----------7------7-----|
Eb|-33333333----------------------------33333333----------55--55-55--55--|

pre-chorus
Gb|--------------|--------------------------------------------------------|
Db|--------------|-------------------------44-55-77-77-55-44--------------|
Ab|-----------5>-|-----------------44-55-77-----------------77-55-44------|
Eb|-7>--5>--3>---|-7>--5>--3>-55-77---------------------------------77-55-|


chorus
Gb|------------------------------------------------------------------------|
Db|-5>--------5>---------5>---77777-99-77-55-4-5>--------7-------7-7>-55-44|
Eb|---5>--------5>---------5>--------------------5>--7-------7-------------|
Ab|-----5>-7>-----5-3-2-7--------------------------55--55--55--55----------|

bridge
Gb|--------------------------------------|
Db|---77-55-44---------------------55-44-|
Ab|-55-----------77-55-44----------------|
Eb|------------55---------333333333------|

chorus, then main riff. Then you're done.

End on

Eb|-5~

            
            
Suggest correction
Creating personal tab
Creating personal tab
You can edit any tab online and save it as your Personal.

You can edit, replace or remove any tab part or add personal notes – all changes will be seen only by you.

Personal tabs can be accessed anytime from any device, even offline.
Learn more »
comments
print report bad tab
guest
You may want to rate the tab now too:
select rating
Wanna post a correction for this tab? Suggest correction