Oops, an error
Loading. Please wait.

The Economy Is Sufferinglet It Die Tab

6,674 views 6 this week
3 commentsread comments
1 2 3 4 5
x 5
add to favorites
launch autoscroll
font size
0
reset
how to read this tab
guitar tuner
Autoscroll
slow
fast
+/-
esc
set tempo
stop
Help us to improve Ultimate-Guitar.com Take our survey!
×
Author
Difficulty
novice
The Economy is Suffering..Let it Die.
Anti-Flag.
good song. easy song. shouldnt be hard.
INTRO/VERSE
e-----------------|
B-----------------|
G-6-3-------------|
D-6-3-4-----------|
A-4-1-4-----------|
E-----2-----------|

INTRO SOLO
e-----------------------------------------------------|
B--------------------------------------------14-16-14-|
G-88-10h8-6)-88-10h8-6)-11-11-10-10-13-13-13----------|
D-----------------------------------------------------|
A-----------------------------------------------------|
E-----------------------------------------------------|

e-----------------------------------------------------|
B-----------------------------------------------------|
G-88-10h8-6)-88-10h8-6)-11-11-10-10-13-13-8-8---------|
D---------------------------------------------11-11---|
A-----------------------------------------------------|
E-----------------------------------------------------|

VERSE
e-----------------|
B-----------------|
G-6-3-------------|
D-6-3-4-----------|palm mute
A-4-1-4-----------|
E-----2-----------|

e------------------------|
B------------------------|
G-18-18-18-18--11__6___--|
D-18-18-18-18--x___x___--|
A-16-16-16-16--9___4___--|
E------------------------|

CHORUS
e------------------|
B------------------|
G-6----------------|
D-6-6-8-4----------|x2 last time palm mute the last chord
A-4-6-8-4----------|
E---4-6-2----------|

INTRO SOLO
VERSE

"WE'RE SO FUCKED" PART
e----------------------------|
B----------------------------|
G-------------11-------------|
D-8-6-4--8-11-11-8-6-4-6-4---|
A-8-6-4--8-11-9--8-6-4-6-4---|
E-6-4-2--6-9-----6-4-2-4-2---|

CHORUS
SAME CHORDS FOR THE "CITIES BURN DOWN" PART

ENDING
e-------------------|
B-------------------|
G-------------------|
D-8-6-4-8_6_44_-----|
A-8-6-4-8_6_44_-----|
E-6-4-2-6_4_22_-----|
Suggest correction
comments
print report bad tab
3 comments total.
0 reply
XsimX 10 Jul 05, 2009 09:09 PM

Can you make a correction on your tab please. I mean the solo, you need to up the second part of riff...

0 reply
iRock7 51 Jul 08, 2009 06:38 PM

Great tab dude! Do you happen to know what kinda pedal they use on the intro solo? I can't quite put my finger on it.

0 reply
filiot96 681 Aug 05, 2013 06:10 AM

Boss OS2 Pedal

guest
You may want to rate the tab now too:
select rating
Wanna post a correction for this tab? Suggest correction