Oops, an error
Loading. Please wait.

The Great Depression bass

1,047 views 1 this week
no commentswrite comment
1 2 3 4 5
2 more votes to show rating
add to favorites
×
Save as Personal and add changes to this tab that will be seen only by you. Learn more ›
×
You can save this tab as Personal to edit and correct it or add notes. All changes will be seen only by you. Learn more »
launch autoscroll
font size
0
reset
guitar tuner
edit
Autoscroll
slow
fast
+/-
esc
set tempo
stop
Author
Difficulty
- Anti-Flag - The Gre(A)t Depression
- Tabbed by: Pacu, bassist from a brazilian punk rock band called PunkAss.
- The bass lines in this new album are pretty hard to hear. They turned the bass 
volume down. So some parts may be not so right. Hope it helps.

__________
Intro [00:06]
Gb|------------------------------------|----|
Db|------------------------------------|----|
Ab|-3~--3~--3~--3~--3~--333~--3~--333~-|-1x-|
Eb|------------------------------------|----|

Verse I 
[00:19]
Gb|-----|----|
Db|-----|----|
Ab|-3~~-|-1x-|
Eb|-----|----|

[00:32]
Gb|--------------------------------------------------|----|
Db|--------------------------------------------------|----|
Ab|---------3~----------3~---------------------------|-1x-|
Eb|-3~--1~------3~--1~----3~-1111111111111111-3~--1~-|----|

Bridge I
[00:51]
Gb|-------------|----|
Db|-------3---3-|----|
Ab|-3-3-3---3---|-8x-|
Eb|-------------|----|

Verse II
[01:04]
Gb|-------------|----|
Db|-------3-3-3-|----|
Ab|-3-3-3-------|-8x-|
Eb|-------------|----|

Gb|-------------------------------------------|----|
Db|-------------------------3-3-3-------3-3-3-|----|
Ab|-------------------3-3-3-------3-3-3-------|-1x-|
Eb|-33333333-11111111-------------------------|----|

Gb|---------------------------------------------|----|
Db|---------------------------------------------|----|
Ab|-------------------3333----------------------|-1x-|
Eb|-33333333-11111111-----3333-1111111111111111-|----|

Gb|---------------|----|
Db|---------------|----|
Ab|---------3~~~~-|-1x-|
Eb|-3~--1~--------|----|

Verse III 
[01:42]
Gb|-----|----|
Db|-----|----|
Ab|-3~~-|-1x-|
Eb|-----|----|

[01:54]
Gb|-------------------------------------|----|
Db|-------------------------------------|----|
Ab|---------3~---------3333333333333333-|-1x-|
Eb|-3~--1~------3~--1~------------------|----|

Bridge
[02:07]
Gb|---------------------------------------|----|
Db|-------3-3-------3-3-------------------|----|
Ab|-3-3-3-----3-3-3-----------------------|-4x-|
Eb|----------------------33333333-1111111-|----|

Ending
Gb|-------------|----|
Db|-------3-3-3-|----|
Ab|-3-3-3-------|-8x-|
Eb|-------------|----|

Gb|---------------|----|
Db|---------------|----|
Ab|-----------3~~-|-2x-|
Eb|-3~~--1~~------|----|

            
            
Suggest correction
Creating personal tab
Creating personal tab
You can edit any tab online and save it as your Personal.

You can edit, replace or remove any tab part or add personal notes – all changes will be seen only by you.

Personal tabs can be accessed anytime from any device, even offline.
Learn more »
Give kudos to tab author, rate the tab!
1 2 3 4 5
comments
print report bad tab
guest
You may want to rate the tab now too:
select rating
Wanna post a correction for this tab? Suggest correction