Oops, an error
Loading. Please wait.

The Modern Rome Burning bass

2,104 views 1 this week
2 commentsread comments
1 2 3 4 5
x 3
add to favorites
×
Save as Personal and add changes to this tab that will be seen only by you. Learn more ›
×
You can save this tab as Personal to edit and correct it or add notes. All changes will be seen only by you. Learn more »
launch autoscroll
font size
0
reset
guitar tuner
edit
Autoscroll
slow
fast
+/-
esc
set tempo
stop
Author
Difficulty
- Anti-Flag - The Modern Rome Burning
- Tabbed by: Pacu, bassist from a brazilian punk rock band called PunkAss. Check it out here: facebook.com/bandapunkass
- This song is really easy to play guys. Hope it can be helpful.

___________________


Verse
[00:07]
G|-----------------------------------|
D|-----------------------------------|
A|---------44444444------------------|
E|-22222222--------22222222-44444444-|

G|------------------------------------|
D|------------------------------------|
A|-1--11--1-10--1--11-1-10--1-11-1-10-|
E|------------------------------------|

G|-------------------|
D|-------------------|
A|-11111111-11111111-|
E|-------------------|

G|-----------------------------------|
D|-----------------------------------|
A|---------44444444------------------|
E|-22222222--------22222222-44444444-|

Pre-chorus
G|-------------|
D|-------------|
A|-1~----4~----|
E|----2~----4~-|

Chorus
G|---------------------------------------------------------------------|
D|---3311--3311----------44--4433-----------------------------664433---|
A|-11----33----4433----44--44----6644--4-444-444-444----------------66-|
E|-------------------22-------------------------------44444444---------|

G|-------------------------------------------------------------------------------|
D|---3311--3311----------44--4433---------------------------------------66666666-|
A|-11----33----4433----44--44----6644--4-444-444-444-----------------------------|
E -------------------22-------------------------------44444444-44444444----------|

Verse
G|-------------------------------|
D|-------------------------------|
A|-11-1-1-010--11111111-11111111-|
E|-------------------------------|

G|-----------------------------------|
D|-----------------------------------|
A|---------44444444------------------|
E|-22222222--------22222222-44444444-|

G|--------------------------------------|
D|--------------------------------------|
A|-1--11--1-10--1--11-1-10--1-11-1-10-1-|
E|--------------------------------------|

No Instruments

G|-----------------------------------|
D|-----------------------------------|
A|---------44444444------------------|
E|-22222222--------22222222-44444444-|

Pre-chorus
Chorus

Bridge I
G|-----31-1-----31-1-----|
D|-------3-31-----3-31-1-|
A|-1~--------31-------3--|
E|-----------------------|

G|-----3-1---------|
D|---------3-4-3-1-|
A|-1~--------------|
E|-----------------|

G|-----------------|
D|-----------1-----|
A|-1~--1-3-4---4-3-|
E|-----------------|

G|-----31-1-----31-1-----|
D|-------3-31-----3-31-1-|
A|-1~--------31-------3--|
E|-----------------------|

G|-------------------------------------|------|
D|------------6644---------------------|------|
A|---4422---44----44---4422-----6644---|-[2x]-|
E|-22----44----------22----44-44----66-|------|

Bridge II (Yes, there's a bass in this part! its really low)
G|--------------------------------------------------------------------------|------|
D|--------------------------------------------------------------------------|------|
A|-13~-18h20-21-20-18--16~-18h20-21-20-18------18h20-21-20-18------21-20-18-|-[3x]-|
E|-----------------------------------------16~-----------------14~----------|------|

G ------------------------------------------------------------------------|------|
D ------------------------------------------------------------------------|------|
A -13~-18h20-21-20-18--16~-18h20-21-20-18------18h20-21-20-18-------------|-[1x]-|
E -----------------------------------------16~------------------14~-13-14-|------|

Bridge III
G -------------------------------------------------------------------|------|
D -------------------------------------------------------------------|------|
A|-1-11111-9-9986--4-44444-9-9986----------9-9986--------------------|-[2x]-|
E ---------------------------------4-44444---------2-22222-1-11-4-44-|------|

Ending
G ------------------------------------------------------------------------------|----|
D ------------------------------------------------------------------------------|----|
A -13~-18h20-21-20-18--16~-18h20-21-20-18------18h20-21-20-18--21~---------13~~~|-13-|
E -----------------------------------------16~---------------------13~-14~------|----|
Suggest correction
Creating personal tab
Creating personal tab
You can edit any tab online and save it as your Personal.

You can edit, replace or remove any tab part or add personal notes – all changes will be seen only by you.

Personal tabs can be accessed anytime from any device, even offline.
Learn more »
Give kudos to tab author, rate the tab!
1 2 3 4 5
comments
print report bad tab
2 comments total.
0 reply
chrisjenks 2,712 Jul 22, 2008 07:55 AM

good job!, but again, using fret 21 on the bridge seems a lot more difficult than using the d and g strings.

0 reply
pacu 2,540 Jul 23, 2008 10:01 AM

yeah man, but its just one of many ways to play you know... you can do this like you said... i guess the sound of fret 21 is really cool..so because of that in my tabs i use to use it hehehe but you can use like you said too man, sounds cool too

guest
You may want to rate the tab now too:
select rating
Wanna post a correction for this tab? Suggest correction