Oops, an error
Loading. Please wait.

The Old Guard bass

version 1
version 1

Whole song

Interactive

900 views 1 this week
no commentswrite comment
1 2 3 4 5
x 3
add to favorites
×
Save as Personal and add changes to this tab that will be seen only by you. Learn more ›
×
You can save this tab as Personal to edit and correct it or add notes. All changes will be seen only by you. Learn more »
launch autoscroll
font size
0
reset
guitar tuner
edit
Autoscroll
slow
fast
+/-
esc
set tempo
stop
Author
Difficulty
- Anti-Flag - The Old Guard
- Tabbed by: Pacu, bassist from a brazilian punk rock band called PunkAss.
- I couldn't hear some parts so i tabbed those parts as i thought it should be.

__________
Intro
G|----------|----|
D|----------|----|
A|-6~-------|-2x-|
E|----6~-4~-|----|

G|--------------------------------------|----|
D|-------568-8-888888-6-666666-86565----|----|
A|-6-6666---------------------------865-|-2x-|
E|--------------------------------------|----|

G|------------------------------------------------------------|----|
D|-------6865---------------------------------6-666666655-----|----|
A|-6-6666--------------86565------8656---8656------------8855-|-2x-|
E|------------6-666666------865-88-----66---------------------|----|

Verse
G|-------------------------------------------------------------------|----|
D|-------886655------------------------------------------------------|----|
A|-666666------66----------------------------------------------------|-2x-|
E|----------------6666666666666666-8888888888888888-4444444444444444-|----|

Pre-chorus
G|---------------------------------------------------------------------|----|
D|--------------------------------------------8-888888-6-666666655-----|----|
A|---------86565------------86565----6-666666---------------------8855-|-1x-|
E|-8-888888-----865-6-666666-----865-----------------------------------|----|

G|----------------------|----|
D|----------------------|----|
A|---------86565--------|-1x-|
E|-8-888888-----865-6~~-|----|

Chorus
G|--------------------------------------|----|
D|-------568-8-888888-6-666666-86565----|----|
A|-6-6666---------------------------865-|-2x-|
E|--------------------------------------|----|

G|-------------------------------|----|
D|-------568-8-888888-1010886655-|----|
A|-6-6666------------------------|-1x-|
E|-------------------------------|----|

G|---------------------------|----|
D|---------------------------|----|
A|-66~~----------------------|-1x-|
E|------6~~-4444444444444444-|----|

Bridge II
G|------------------------------------------------------------|----|
D|-------6865---------------------------------6-666666655-----|----|
A|-6-6666--------------86565------8656---8656------------8855-|-1x-|
E|------------6-666666------865-88-----66---------------------|----|

Vese
G|----------------------------------------------------------------------|----|
D|----------------------------------------------------------------------|----|
A|-6666666666666666---------------------------55556666------------------|-1x-|
E|------------------6666666666666666-888888888---------4444444444444444-|----|

G|----------------------------------------------------------------------|----|
D|-----------------------------------------------------6666666666666666-|----|
A|-6666666666666666---------------------------55556666------------------|-1x-|
E|------------------6666666666666666-888888888--------------------------|----|

Pre-chorus
G|---------------------------------------------------------------------|----|
D|--------------------------------------------8-888888-6-666666655-----|----|
A|---------86565------------86565----6-666666---------------------8855-|-1x-|
E|-8-888888-----865-6-666666-----865-----------------------------------|----|

G|----------------------|----|
D|----------------------|----|
A|---------86565--------|-1x-|
E|-8-888888-----865-6~~-|----|

Chorus
G|--------------------------------------|----|
D|-------568-8-888888-6-666666-86565----|----|
A|-6-6666---------------------------865-|-2x-|
E|--------------------------------------|----|

G|-------------------------------|----|
D|-------568-8-888888-1010886655-|----|
A|-6-6666------------------------|-1x-|
E|-------------------------------|----|

G|--------------|----|
D|--------------|----|
A|-66~~---------|-1x-|
E|------6~~-4~~-|----|

Bridge II
G|--------------------------|----|
D|----------------------6~~-|----|
A|-6~~----------6~~---------|-1x-|
E|-----6~~-4~~------6~~-----|----|

G|----------------------|----|
D|-----568~-6~-86565----|----|
A|-66~--------------865-|-1x-|
E|----------------------|----|

G|--------------------------------------------------|----|
D|-----568~-----------5555-6666-----------5555-6666-|----|
A|-66~------6666-8888-----------6666-8888-----------|-1x-|
E|--------------------------------------------------|----|

G|----------------------------------|----|
D|-----5566-----5566-----556688665/-|----|
A|-6688-----6688-----6688-----------|-1x-|
E|----------------------------------|----|

Chorus
G|-----8-----------------------------|----|
D|---88-8--------------10---------55-|----|
A|-66-------8865---1010--10---6688---|-2x-|
E|--------66-----88---------44-------|----|

G|-------------------------------|----|
D|----865------------------------|----|
A|-66----6----6-8----1087------4-|-1x-|
E|---------66-----88-----8-44-6--|----|

G|-------------------------------|----|
D|----865------------------------|----|
A|-66----6----6-8----1087--------|-1x-|
E|---------66-----88-----8-4~~~~-|----|

Ending
G|-------------------------------------------------|----|
D|----------8-6-5--------------5-----5------55--66-|----|
A|-6-666666----------------6-8--------868----------|-2x-|
E|----------------6-666666-------8-88-----66--44---|----|

G|-------------------|----|
D|-------------------|----|
A|-6--5--------6~~~~-|-1x-|
E|-------8--6--------|----|

            
            
Suggest correction
Creating personal tab
Creating personal tab
You can edit any tab online and save it as your Personal.

You can edit, replace or remove any tab part or add personal notes – all changes will be seen only by you.

Personal tabs can be accessed anytime from any device, even offline.
Learn more »
Give kudos to tab author, rate the tab!
1 2 3 4 5
comments
print report bad tab
guest
You may want to rate the tab now too:
select rating
Wanna post a correction for this tab? Suggest correction