Oops, an error
Loading. Please wait.

The Shadow Of The Dead bass

829 views 3 this week
no commentswrite comment
1 2 3 4 5
2 more votes to show rating
add to favorites
×
Save as Personal and add changes to this tab that will be seen only by you. Learn more ›
×
You can save this tab as Personal to edit and correct it or add notes. All changes will be seen only by you. Learn more »
launch autoscroll
font size
0
reset
guitar tuner
edit
Autoscroll
slow
fast
+/-
esc
set tempo
stop
Author
Difficulty
this is my first tab.
intro-

/------------------/
/--------2---------/
/--4-0-4---4-0-4---/
/----------------4-/ X3

/------------------/
/------2-4-4-4-2---/
/2-2-4-------------/
/------------------/

-Play twice before chorus

Verse-
is the same as the intro (X2) but before going into the chorus there is-

/------------|
/------------|
/-4-4-4-4-4--|
/------------|

Chorus-
/--------------------------------------------------------------------|
/--------------------------------------------------------------------|
/--4-4-4-4---------4-4-4-4---------------------------4-4-4-4-4-4-4-4-|
/----------4-4-4-4---------2-2-2-2--0-0-0-0--4-4-4-4-----------------|

/----------------------------------------------------|
/----------------------------------------------------|
/--4-4-4-4---------4-4-4-4---------------------------|
/----------4-4-4-4---------2-2-2-2--0-0-0-0--4-4-4-4-|

VERSE- same as 1st

CHROUS-

BRIDGE- the bit were #2 is singing- " i can't belive my own eyes"-
(im not 100% sure about this)

/----------------------------------|
/----------------------------------|
/--4~~~~~~-------------------------|
/----------0~~~~~~-2~~~~~~-4~~~~~~-| X4

/----------------------------------|
/----------------------------------|
/----------------------------------|
/-4-5-4-5-4-5-4-5-4-5-4-5-4-5-4-5--|

/------------------------------/
/--------2---------------------/
/--4-0-4---4-0-4---4-slide to-1/
/----------------4-------------/

Chris Head's Solo-
during this play the intro again but when your done add this-

/------------|
/------------|
/-4-4-4-4-4--|
/------------|

#2's Solo Singing Bit-
"we will be soverein in the water, in the shadow of the dead. Still no one remebers 
We will be free in the cold of the shadow of the dead.."

First time through play nothing then we he says"We will be free in the cold"
play this-

/-----------------------------|
/-----------------------------|
/-4-4-----4-4-----0-0---------|
/-----4-4-----2-2-----2-~~~~~-|

CHORUS-

/--------------------------------------------------------------------|
/--------------------------------------------------------------------|
/--4-4-4-4---------4-4-4-4---------------------------4-4-4-4-4-4-4-4-|
/----------4-4-4-4---------2-2-2-2--0-0-0-0--4-4-4-4-----------------|

/----------------------------------------------------|
/----------------------------------------------------|
/--4-4-4-4---------4-4-4-4---------------------------|
/----------4-4-4-4---------2-2-2-2--0-0-0-0--4-4-4-4-|

slowed down bit of chorus-
/--------------------------------------------|
/--------------------------------------------|
/--4-4-4--------4-4-4-4----------------------|
/---------4-4-4---------0~~~~~~-0~~~-2~~~~~--|

Breakdown bit/end-
again not 100% sure.

/---------------------------------|
/---------------------------------|
/---4-4---------------------------|
/-------7-5-4--5-4-2-0--0-2-4-0-4-|

i probably should have listened and tabbed that bit right but hey, im a lazy shit.

marcus94_11@hotmail.com
www.myspace.com/flashingeddy

            
            
Suggest correction
Creating personal tab
Creating personal tab
You can edit any tab online and save it as your Personal.

You can edit, replace or remove any tab part or add personal notes – all changes will be seen only by you.

Personal tabs can be accessed anytime from any device, even offline.
Learn more »
Give kudos to tab author, rate the tab!
1 2 3 4 5
comments
print report bad tab
guest
You may want to rate the tab now too:
select rating
Wanna post a correction for this tab? Suggest correction