Oops, an error
Loading. Please wait.

The Smartest Bomb bass

version 1
version 1

Whole song

Interactive

2,917 views 6 this week
no commentswrite comment
1 2 3 4 5
1 last vote to show rating
add to favorites
×
Save as Personal and add changes to this tab that will be seen only by you. Learn more ›
×
You can save this tab as Personal to edit and correct it or add notes. All changes will be seen only by you. Learn more »
launch autoscroll
font size
0
reset
guitar tuner
edit
Autoscroll
slow
fast
+/-
esc
set tempo
stop
Author
Difficulty
- Anti-Flag - The Smartest Bomb
- Tabbed by: Pacu, bassist from a brazilian punk rock band called PunkAss.
- That's the best song from the bright lights of america album. 

__________________
Tunning: Eb Ab Db Gb

Intro I
Gb|--------------------|-------------------|
Db|------------5----7--|------------5------|
Ab|----3~-0~-33-3-55-5-|----3~-0~-33-3-5~~-|
Eb|-0~-----------------|-0~----------------|

Intro II
Gb|------------------------------------------|------|
Db|------------------------------------------|------|
Ab|----------------------33333333333333333333|-[2x]-|
Eb|-00000000000000000000---------------------|------|

Verse
Gb|-----------------------------------|
Db|----55775-9977557----55775-9977557-|
Ab|-7-7--------------7-7--------------|
Eb|-----------------------------------|

Gb|-----------------------------------------------|
Db|-10-109977---10109977---10-109977---10109977---|
Ab|----------10---------10----------10---------10-|
Eb|-----------------------------------------------|

Gb|-----------------------------------|
Db|----55775-9977557----55775-9977557-|
Ab|-7-7--------------7-7--------------|
Eb|-----------------------------------|

Gb|-------------------------------------------------|
Db|-10-109977---10109977---10-109977---101099121210-|
Ab|----------10---------10----------10--------------|
Eb|-------------------------------------------------|

Pre-chorus
Gb|------------------------------|
Db|------------------------------|
Ab|-0000----0000----3333----3333-|
Eb|------------------------------|

Intro II
Gb|------------------------------------------|------|
Db|------------------------------------------|------|
Ab|----------------------33333333333333333333|-[1x]-|
Eb|-00000000000000000000---------------------|------|

Verse
Pre-chorus

Chorus [2x]
Gb|--------------------------------------------------------|
Db|--------------------------------------------------------|
Ab|-10-101010101010-10-101010101010-10-1010101010-10h12109-|
Eb|--------------------------------------------------------|

Gb|----------------------------|--------------------------------------------|
Db|----------------------------|--------------------------------------------|
Ab|-3-333333-3-33333-533232020-|-7-777777-7-777777-9-999999-10-101010101010-|
Eb|----------------------------|--------------------------------------------|

Gb|-------------------------------------|
Db|-------------------------------------|
Ab|-3-333333-3-333333-0-000000-3-333333-|
Eb|-------------------------------------|

Bridge I [“everyday we’ve been taught to follow”]
Gb|-------------|------|
Db|-------------|------|
Ab|----2~-3~-0~-|-[2x]-|
Eb|-0~----------|------|

Bridge II [“kill tonight, will you follow”]
Gb|-------------------|-----------------|
Db|-------------------|-----------------|
Ab|------222--333-000-|-----222-333-0~~-|
Eb|-000---------------|-000-------------|

Chorus 
Gb|--------------------------------------|------|
Db|------------------------------5----7--|------|
Ab|----------33333333-00000000-33-3-55-5-|-[2x]-|
Eb|-00000000-----------------------------|------|

Bass Solo 
Gb|-----------------------------------------------|
Db|---10-9-10-12-10-12-14-12-14-15-14-15-14-12-15-|
Ab|-----------------------------------------------|
Eb|-0---------------------------------------------|

Gb|-17-16-14----14----------14h16-14----14-----------|
Db|----------17----17-16-17----------17----17-16-14--|
Ab|--------------------------------------------------|
Eb|--------------------------------------------------|

Gb|-------------------------------|
Db|-------------------------------|
Ab|-------------------------------|
Eb|-0-19-17-19-15-17-14-15-12-----|

Gb|----------------------------------------------|
Db|----------------------------------------------|
Ab|----------12----------15-14-12----12----------|
Eb|-15-14-12----15-14-12----------15----15-14-15-|

Ending
Gb|--------------------|-----|
Db|------------5----7--|-----|
Ab|----3~-0~-33-3-55-5-|-----|
Eb|-0~-----------------|-0~~-|



            
            
Suggest correction
Creating personal tab
Creating personal tab
You can edit any tab online and save it as your Personal.

You can edit, replace or remove any tab part or add personal notes – all changes will be seen only by you.

Personal tabs can be accessed anytime from any device, even offline.
Learn more »
Give kudos to tab author, rate the tab!
1 2 3 4 5
comments
print report bad tab
guest
You may want to rate the tab now too:
select rating
Wanna post a correction for this tab? Suggest correction