Oops, an error
Loading. Please wait.

The Wto Kills Farmers bass

version 2
version 2

Whole song

1,807 views 1 this week
1 commentread comment
1 2 3 4 5
x 3
add to favorites
×
Save as Personal and add changes to this tab that will be seen only by you. Learn more ›
×
You can save this tab as Personal to edit and correct it or add notes. All changes will be seen only by you. Learn more »
launch autoscroll
font size
0
reset
guitar tuner
edit
Autoscroll
slow
fast
+/-
esc
set tempo
stop
Author
Difficulty
- Anti-Flag - The W.T.O. Kills Farmers
- Tabbed by: Pacu, bassist from a brazilian punk rock band that is called PunkAss.
- This song is freakin creazy to play! I hopw you like this tab..

Tunning: Standart (EADG)
\ = slide down
h = harmer on


Bass Intro
[00:09] [1x]
G|--------------------------------------|
D|--------------------------------------|
A|-8-8\13~--1613-1613-16-18-20-18-16-15-|
E|--------------------------------------|

Verse
[00:16] [2x]
G|---------------------------------------|
D|-------3--4-3h4-6--------3-4-3---3-----|
A|---4h6---------------4h6-------6---6-4-|
E|-6-----------------6-------------------|

Pré-chorus
[00:28] [1x]
G|------------------------------------|
D|-4~--4h6-4-3-4-3---3~--44-33-44-3---|
A|-----------------6----------------6-|
E|------------------------------------|

Chorus
[00:35] [2x]
G|-------------------------------------|
D|-------------------------------------|
A|-11111111----------------------------|
E|----------11111111-22222222-44444444-|

[00:48] [1x]
G|-------------------------------------------------|
D|----33-11-33----44-33-11----33-11-33----44-33-66-|
A|-11----------------------------------------------|
E|-------------11----------22----------44----------|

[00:53] [1x]
G|---------------------------------------|
D|----------------------------3~3~-4~-6~-|
A|-11111111------------------------------|
E|----------11111111-2~2~2~2~------------|

After chorus
[01:03] [1x]
G|---------------------|
D|---------------------|
A|-1~--------------4---|
E|----1~-2~-4~-4h6---6-|

Verse
[01:11] [4x]
G|---------------------------------------|
D|-------3--4-3h4-6--------3-4-3---3-----|
A|---4h6---------------4h6-------6---6-4-|
E|-6-----------------6-------------------|

Pré-chorus
[01:36] [1x]
G|------------------------------------|
D|-4~--4h6-4-3-4-3---3~--44-33-44-3---|
A|-----------------6----------------6-|
E|------------------------------------|

Chorus
[01:42] [2x]
G|-------------------------------------|
D|-------------------------------------|
A|-11111111----------------------------|
E|----------11111111-22222222-44444444-|

[01:55] [1x]
G|-------------------------------------------------|
D|----33-11-33----44-33-11----33-11-33----44-33-66-|
A|-11----------------------------------------------|
E|-------------11----------22----------44----------|

[02:01] [1x]
G|---------------------------------------|
D|----------------------------3~3~-4~-6~-|
A|-11111111------------------------------|
E|----------11111111-2~2~2~2~------------|

Outro
[02:11]
G|------------------------------|
D|------------------------------|
A|-1~----1~---------------------|
E|----2~-----22222222-1111-4444-|

Guitar Solo
[02:23] [4x]
G|-------------------------------------------------|
D|----33-11-33----44-33-11----33-11-33----44-33-66-|
A|-11----------------------------------------------|
E|-------------11----------22----------44----------|

Ending
[02:48] [5x]
G|-----------------------------------------|
D|-----------------------------------------|
A|-1111---------------------8888-9999-4444-|
E|------1111-2222-4444-6666----------------|

[03:16] [1x]
G|--------------6--6---|
D|--------3-\8---8--8~-|
A|---------------------|
E|-2~-1~---------------|







            
            
Suggest correction
Creating personal tab
Creating personal tab
You can edit any tab online and save it as your Personal.

You can edit, replace or remove any tab part or add personal notes – all changes will be seen only by you.

Personal tabs can be accessed anytime from any device, even offline.
Learn more »
Give kudos to tab author, rate the tab!
1 2 3 4 5
comments
print report bad tab
1 comment total.
0 reply
pacu 2,540 Nov 28, 2008 03:52 PM

*This song is freakin CRAZY to play! I HOPE you like this tab..

guest
You may want to rate the tab now too:
select rating
Wanna post a correction for this tab? Suggest correction