Oops, an error
Loading. Please wait.

This Is The End For You My Friend bass

version 3
version 3

Whole song

Interactive

17,136 views 30 this week
3 commentsread comments
1 2 3 4 5
x 11
add to favorites
×
Save as Personal and add changes to this tab that will be seen only by you. Learn more ›
×
You can save this tab as Personal to edit and correct it or add notes. All changes will be seen only by you. Learn more »
launch autoscroll
font size
0
reset
guitar tuner
edit
Autoscroll
slow
fast
+/-
esc
set tempo
stop
Author
Difficulty
Verse: (1X)

G|------------------------------------|
D|---4-2-0-------------------4-2-0----|
A|-2-------2---------------2-------2--|
E|-----------222-333------------------|

G|---------------------------------------------4--|
D|---4-2-0-----------------4-2-0----------4-------|
A|-2-------2-------------2-------2----2-2---2-2---|
E|-----------2222-333-----------------------------|

G|------------------------------------|
D|---4-2-0-------------------4-2-0----|
A|-2-------2---------------2-------2--|
E|-----------2222-333-----------------|

G|--------------------------------------|
D|---4-2-0-----------------4-2-0--------|
A|-2-------2-------------2-------2------|
E|-----------2222-333---------------0^--|

Pre-Chorus: (1X)

G|----------|
D|----------|
A|----------|
E|--3^--2^--|

Chorus: (1X)

G|-----------------------|
D|-----------------------|            2 Times
A|-5555------222---------|
E|------5555-----2-3333--|

G|-----------------------------------------------|
D|------4-5-7777---9999---5555-------4-5-7777----|
A|-5555----------5------5--------5555---------5--|
E|-----------------------------------------------|

Post-Chorus: (1X)

G|-----------------------------------------------------|
D|-----------------------------------------------------|
A|--22222------------222222----------------------------|
E|--------22222-3333-----------------------------------|

Pre-Verse
G|-----------------------------------------------------|
D|--------------------4-5-----4-5----------------------|
A|-222-----222-----222-----222-------------------------|
E|-----3-2-----3-2-------------------------------------|

Verse: (1X)

G|------------------------------------|
D|---4-2-0-------------------4-2-0----|
A|-2-------2---------------2-------2--|
E|-----------222-333------------------|

G|---------------------------------------------4--|
D|---4-2-0-----------------4-2-0----------4-------|
A|-2-------2-------------2-------2----2-2---2-2---|
E|-----------2222-333-----------------------------|

G|------------------------------------|
D|---4-2-0-------------------4-2-0----|
A|-2-------2---------------2-------2--|
E|-----------2222-333-----------------|

G|--------------------------------------|
D|---4-2-0-----------------4-2-0--------|
A|-2-------2-------------2-------2------|
E|-----------2222-333---------------0^--|

Pre-Chorus: (1X)

G|----------|
D|----------|
A|----------|
E|--3^--2^--|

Chorus: (1X)

G|-----------------------|
D|-----------------------|            2 Times
A|-5555------222---------|
E|------5555-----2-3333--|

G|-----------------------------------------------|
D|------4-5-7777---9999---5555-------4-5-7777----|
A|-5555----------5------5--------5555---------5--|
E|-----------------------------------------------|

Bridge I: (2X)

G|----------------------|
D|----------------------|
A|-2222------5555-------|
E|------3333------2222--|

Bridge II: (2X)

G|--------------------------|
D|----4-5555--------0-4444--|
A|-222-------5555-45--------|
E|--------------------------|

Last-Chorus: (1X)

G|----------------------------------------------|
D|------4-5-7545-42-42--020---------4-5-7777----|
A|-5555--------------------4---5555----------5--|
E|----------------------------------------------|

Outro: (2X)

G|------------------------------------|
D|---4-2-0-------------------4-2-0----|
A|-2-------2---------------2-------2--|
E|-----------222-333------------------|

-> This is the end.....

            
            
Suggest correction
Creating personal tab
Creating personal tab
You can edit any tab online and save it as your Personal.

You can edit, replace or remove any tab part or add personal notes – all changes will be seen only by you.

Personal tabs can be accessed anytime from any device, even offline.
Learn more »
comments
print report bad tab
3 comments total.
0 reply
blink bassist 10 May 16, 2008 12:07 PM

Perfecto my friend,
Except for the end bit of the verse.
Instead of:
----------4--|
-----4-------|
-2-2---2-2---|
-------------|

It's:
-----------2-4-|
----2-4--2-----|
--2------------|
---------------|

5 Stars. Ohhhh Yeah :)

0 reply
blink bassist 10 May 16, 2008 12:08 PM

Btw, funny ending.
(How sad am I :P)

+3 reply
zarkasm 10 Nov 29, 2008 02:13 AM

perfect EXCEPT for that its a half step to high --> change tuning to eb ab db gb then it'll sound right

guest
You may want to rate the tab now too:
select rating
Wanna post a correction for this tab? Suggest correction