Oops, an error
Loading. Please wait.

Turncoat bass

version 2
version 2

Whole song

Interactive

13,652 views 9 this week
4 commentsread comments
1 2 3 4 5
x 10
add to favorites
×
Save as Personal and add changes to this tab that will be seen only by you. Learn more ›
×
You can save this tab as Personal to edit and correct it or add notes. All changes will be seen only by you. Learn more »
launch autoscroll
font size
0
reset
guitar tuner
edit
Autoscroll
slow
fast
+/-
esc
set tempo
stop
Author
Tabbed by Carlos Alberto T.L. 
(Any comments or corrections to carlosalbertotl90@hotmail.com)
This is my fisrt tab, enjoy it.

Intro
G|----------------|
D|----------------|
A|----------------|
E|-111111111------|

Intro 2nd part

G|------------------------------------------------------------|
D|------------------------------------------------------------|
A|------------------------------------------------------------|
E|-11111111-3333333--------66-55-33-55-33-11-33-11------------|

G|------------------------------------------------------------|
D|----------------------------------------00-------22---------|
A|-------------------------------11-00-11----11-33----33------|
E|-11111111-3333333-------------------------------------------|

Verse

G|-------------------------------------------------------------|
D|-------------------------------------------------------------|
A|------------------------------8----8----8----8---------------|   x3
E|-11111111-33333333---------66---66---66---66---6-------------| 


G|-------------------------------------------------------------------------|
D|-------------------------------------------------------------------------|
A|-------------------------------------------------------------------------|
E|-11111111-333333333-6666-5555-3333-1111----------------------------------|

Chorus x2

G|------------------------------|
D|------------------------------|
A|------------------------------|
E|-1-1-333-6-6-555---10/1-------|
            
               
G|------------------------------------------|
D|------------------------------------------|
A|----------------------88---88---88---8----|
E|-66666666-5555-3333-6----6----6----6---66-|

G|------------------------------|
D|------------------------------|
A|------------------------------|
E|-1-1-333-6-6-555---10/1-------|
            
               
G|------------------------------------------|
D|------------------------------------------|
A|------------------------------------------|
E|-66666666-5555-3333-1~~~~~~~~~~~----------|

Acoustic Guitar Part

Bridge

G|----------------------------------------------------------------|
D|----------------------------------------------------------------|
A|--------------------------55555555555---------------------------|
E|-111111111111-33333333333---------------------------------------|

This Part speeds up

G|--------------------------------------|
D|--------------------------------------|
A|-3~1~3~1~-3-1-3-1-3-1-3-1-3-----------|
E|--------------------------------------|

Chorus #2

G|------------------------------|
D|------------------------------|
A|------------------------------|
E|-1-1-333-6-6-555---10/1-------|
            
               
G|------------------------------------------|
D|------------------------------------------|
A|--------------------88---88---88---8------|
E|-666666-5555-3333-6----6----6----6---66---|

G|--------------------------------3-1-0----------------|
D|-----3-1-0---------0-1-3------------3----------------|
A|------------3-----3--------1-1----------000-00-4-5---|
E|-1-1---------333-------------------------------------|

G|------------------------------------------|
D|------------------------------------------|
A|------------------------------------------|
E|-66666666-5555-3333-----------------------|

Outro

G|------------------------------------------------------------|
D|------------------------------------------------------------|
A|------------------------------------------------------------|
E|-11111111-3333333--------66-55-33-55-33-11-33-11------------|

G|------------------------------------------------------------|
D|----------------------------------------00-------22---------|
A|-------------------------------11-00-11----11-33----33------|
E|-11111111-3333333-------------------------------------------|

G|------------------------------------------------------------|
D|-33333333-55555555-88-77-55-33-55-33-22-33------------------|
A|------------------------------------------------------------|
E|------------------------------------------------------------|

G|----------------------------------|
D|-33333333-55555555----------------|
A|----------------------------------|
E|----------------------------------|

Outro part #2

G|-1010-99-77-55-33-22-00-22-------------------------|
D|---------------------------------------------------|
A|---------------------------------------------------|
E|---------------------------------------------------|    x3

G|--------------------|
D|--------------------|
A|-111111111----------|

            
            
Suggest correction
Creating personal tab
Creating personal tab
You can edit any tab online and save it as your Personal.

You can edit, replace or remove any tab part or add personal notes – all changes will be seen only by you.

Personal tabs can be accessed anytime from any device, even offline.
Learn more »
comments
print report bad tab
4 comments total. Showing first comments.
0 reply
DRUSHIZZLE 10 Aug 02, 2007 06:42 PM

on chorus part 2 ,it should look like this..only correction i could find....not a 100% sure that 1-3 3-1 is right but sounds good

G|----------------------------------------------------------------|
D|---------------------------------------------------------3-1----|
A|------------------------------------88---88---88---8--------3-1-|
E|-1-1-333-6-6-555--666666-5555-3333-6----6----6----6---66--------|


G|-------------------------3-1---------------|
D|----3-1-----------1-3-------3-1--------3-1-|
A|-------3-1-----1-3------------------1-3----|
E|1-1--------333--------6-6--------5-5-------|

0 reply
DRUSHIZZLE 10 Sep 16, 2007 11:36 AM

correction-

G|----------------------------------------------------------|
D|--------------------------------------3---3----3---3-1----|
A|--------------------------------------------------------3-|
E|-1-1-333-6-6-555--666666-5555-3333-11---11--11---1--------|

0 reply
cooper665 40 Jul 10, 2009 12:05 PM

is it not jst easier to play an f major scale on the last bit of the outro in a higher octave and going down in pitch?

guest
You may want to rate the tab now too:
select rating
Wanna post a correction for this tab? Suggest correction