Oops, an error
Loading. Please wait.

War Sucks Lets Party bass

version 2
version 2

Whole song

Interactive

2,189 views 1 this week
no commentswrite comment
1 2 3 4 5
x 3
add to favorites
×
Save as Personal and add changes to this tab that will be seen only by you. Learn more ›
×
You can save this tab as Personal to edit and correct it or add notes. All changes will be seen only by you. Learn more »
launch autoscroll
font size
0
reset
guitar tuner
edit
Autoscroll
slow
fast
+/-
esc
set tempo
stop
Author
"War Sucks, Let's Party"
Anti-Flag
For Blood And Empire

This is a fun, pretty fast song. I use half step tuning, and for me its a pain to 
from standard, so I made this tab.

Drum intro

Verse
Gb|--3-----------------|
Db|-5-5--3---------3---|
Ab|-----5-5--3--5-5-5--|
Eb|---------5-5--------|

Pre chorus

Gb|-------3-------|
Db|----3-----3----|
Ab|-1-1--1--1-1---|
Eb|---------------|

Chorus

Gb|------------------------------------------5-------|
Db|-----3----------3-----88888-7-5---88888--8-7------|
Ab|-5555-5-3-5-5555-5-3-5-----------8----------------|
Eb|--------------------------------------------------|

Chorus part 2

Gb--------------------------------------|
Db-55555555555555-77-88888888-----------|
Ab--------------------------------------|
Eb----------------------------8-8-8-8-8-| 


(on the second time, play Db|10-10-10-10-10)

Bridge

Gb|-------------------------------------|
Db|-------------------555555555555-7777-|
Ab|-55555555555555-33-------------------|
Eb|-------------------------------------|

Verse x2
Pre Chorus x3
Chorus x2
Chorus Part 2
Verse x2
Pre Chorus x3
Chorus x2
Bridge

Have fun.

            
            
Suggest correction
Creating personal tab
Creating personal tab
You can edit any tab online and save it as your Personal.

You can edit, replace or remove any tab part or add personal notes – all changes will be seen only by you.

Personal tabs can be accessed anytime from any device, even offline.
Learn more »
Give kudos to tab author, rate the tab!
1 2 3 4 5
comments
print report bad tab
guest
You may want to rate the tab now too:
select rating
Wanna post a correction for this tab? Suggest correction