Oops, an error
Loading. Please wait.

We Are The Lost bass

983 views 3 this week
2 commentsread comments
1 2 3 4 5
x 3
add to favorites
×
Save as Personal and add changes to this tab that will be seen only by you. Learn more ›
×
You can save this tab as Personal to edit and correct it or add notes. All changes will be seen only by you. Learn more »
launch autoscroll
font size
0
reset
guitar tuner
edit
Autoscroll
slow
fast
+/-
esc
set tempo
stop
Author
Difficulty
- Anti-Flag - We Are The Lost
- Tabbed by: Pacu, bassist from a brazilian punk rock band called PunkAss.
- Easy song. A little cool though.

____________________

Intro – Only Drums

Verse
  [00:14]
G|-------|---------------------------------|------|
D|-------|---------------------------------|------|
A|-------|-------------222-----------------|-[4x]-|
E|--12\--|-44-444-444-4----00-000-000-0222-|------|

Pré-chorus
G|------------------|
D|------------------|
A|------------------|
E|-0000000000000000-|

Chorus
G|------------------------------------------|
D|---------------------2-222222-2h4p2121----|
A|-----------2-222-421------------------421-|
E|-4-444-424--------------------------------|

G|--------------------------------------|
D|---------------------2-222222-42121---|
A|-----------2-222-421---------------42-|
E|-4-444-424----------------------------|

G|--------------------------------------|
D|---------------------2-222222-42121---|
A|-----------2-222-421---------------42-|
E|-4-444-424----------------------------|

G|--------------------------------------|
D|---------------------2222222222222222-|
A|-----------2-222-421------------------|
E|-4-444-424----------------------------|

Guitar Solo
G|------------------------------------|
D|------------------------------------|
A|----------22222222------------------|
E|-44444444----------0000000000000000-|

G|----------------------------|
D|----------------------------|
A|----------22222222----------|
E|-44444444----------00000000-|

Verse
G|---------------------------------|------|
D|---------------------------------|------|
A|-------------222-----------------|-[2x]-|
E|-44-444-444-4----00-000-000-0222-|------|

Verse – No Bass
Chorus

Bridge
G|-----------------------------------------|------|
D|-----------1-111-21--6-666-421-2-222-421-|------|
A|-2-222-421---------4---------------------|-[2x]-|
E|-----------------------------------------|------|

G|--------------------------------|
D|--------------------------------|
A|-22-211-1-------022-211-1-------|
E|---------44-400----------44-400-|

G|---------------------------------------|
D|---------------------------------------|
A|-22222222-1111111----------------------|
E|------------------44444444-00000000000-|

Guitar Solo [4x]
G|------------------------------------|
D|------------------------------------|
A|----------22222222------------------|
E|-44444444----------0000000000000000-|

Chorus

Ending
G|--------------------------------|------|-----|
D|--------------------------------|------|-----|
A|---------22-222-2---------------|-[4x]-|-----|
E|-44-444-4--------00-000-022-222-|------|-4~~-|

Suggest correction
Creating personal tab
Creating personal tab
You can edit any tab online and save it as your Personal.

You can edit, replace or remove any tab part or add personal notes – all changes will be seen only by you.

Personal tabs can be accessed anytime from any device, even offline.
Learn more »
Give kudos to tab author, rate the tab!
1 2 3 4 5
comments
print report bad tab
2 comments total.
0 reply
Dead Ringer 272 Jul 02, 2008 06:17 AM

i thought the G# in the verse was wrong but then i realised my bass was out of tune..
well done man, brilliant tab

0 reply
chrisjenks 2,712 Jul 22, 2008 07:59 AM

ye, good job!

guest
You may want to rate the tab now too:
select rating
Wanna post a correction for this tab? Suggest correction