Oops, an error
Loading. Please wait.

Unpretty Tab

491 views 1 this week
no commentswrite comment
1 2 3 4 5
please rate
add to favorites
launch autoscroll
font size
0
reset
how to read this tab
guitar tuner
Autoscroll
slow
fast
+/-
esc
set tempo
stop
Help us to improve Ultimate-Guitar.com Take our survey!
×
Contributor
Unpretty - Anti-Hero

e|-----------------------------| 
b|-----------------------------| 
g|--6--9-----6--9-----6--9-----|
d|--6--9--9--6--9--9--6--9--9--|
a|--4--7--9--4--7--9--4--7--9--|
E|--------7--------7--------7--|

e|----------------------------------------------------------------------------|
b|-----------5-5-5-5-------------------5-5-5-5--------------------------------|
g|--6----------------4-4-4-4--6----------------4-4-4-4----6--------6----------|
d|--6--7--9-------------------6--7--9---------------------6--7--9--6--7--9----|
a|--4--7--9-------------------4--7--9---------------------4--7--9--4--7--9----|
E|-----5--7----------------------5--7------------------------5--7-----5--7----|
Pm  .......                   .......                     ................

e|--------------------------------------------|
b|--------------------------------------------|
g|--6--9-----6--9--------6--9-----6--9--------|
d|--6--9--9--6--9--9--6--6--9--9--6--9--9--6--|
a|--4--7--9--4--7--9--6--4--7--9--4--7--9--6--|
E|--------7--------7--4--------7--------7--4--|

e|--------------------|
b|--------------------|
g|--6--9-----6--9-----|
d|--6--9--9--6--9--9--|
a|--4--7--9--4--7--9--|
E|--------7--------7--|

e|----------------------------------------------------------------|
b|-----------5-5-5-5-------------------5-5-5-5--------------------|
g|--6----------------4-4-4-4--6-----------------6--------6--------|
d|--6--7--9-------------------6--7--9-----------6--7--9--6--7--9--|
a|--4--7--9-------------------4--7--9-----------4--7--9--4--7--9--|
E|-----5--7----------------------5--7--------------5--7-----5--7--|
Pm  .......                   .......           ................

e|--------------------------------------------|
b|--------------------------------------------|
g|--6--9-----6--9--------6--9-----6--9--------|
d|--6--9--9--6--9--9--6--6--9--9--6--9--9--6--|
a|--4--7--9--4--7--9--6--4--7--9--4--7--9--6--|
E|--------7--------7--4--------7--------7--4--|

e|--------------------------------------------------------------------------------------|
b|--------------------------------------------------------------------------------------|
g|--4-4-4---------4---------------------------4-4-4---------4---------------------------|
d|--------6-6-6-7---7-6-4---------------------------6-6-6-7---7-6-4---------------------|
a|------------------------6-6-6-7-7-6-6-6-7-7-----------------------6-6-6-7-7-6-6-6-7-7-|
E|--------------------------------------------------------------------------------------|

e|--------------------------------------------------------------------------------------|
b|--------------------------------------------------------------------------------------|
g|--4-4-4---------4---------------------------4-4-4---------4---------------------------|
d|--------6-6-6-7---7-6-4---------------------------6-6-6-7---7-6-4---------------------|
a|------------------------6-6-6-7-7-6-6-6-7-7-----------------------6-6-6-7-7-6-6-6-7-7-|
E|--------------------------------------------------------------------------------------|

e|---------------------------------------------|
b|---------------------------------------------|
g|--4-4-4---------4----------------------------|
d|--------6-6-6-7---7-6-4----------------------|
a|------------------------6-6-6-7-7-6-6-6-7-7--|
E|---------------------------------------------|

e|-----------------------------------------------------------------------------------------------|
b|-----------------------------------------------------------------------------------------------|
g|--6--9-----6--9--------6--9-----6--9--------6--9--------6--9--------6--9--------6--9--------6--|
d|--6--9--9--6--9--9--6--6--9--9--6--9--9--6--6--9--9--6--6--9--9--6--6--9--9--6--6--9--9--6--6--|
a|--4--7--9--4--7--9--6--4--7--9--4--7--9--6--4--7--9--6--4--7--9--6--4--7--9--6--4--7--9--6--4--|
E|--------7--------7--4--------7--------7--4--------7--4--------7--4--------7--4--------7--4-----|
comments
We did not receive enough feedback on this tab! Please rate:
print report bad tab
1 2 3 4 5
I want to post or [tab]
guest
You may want to rate the tab now too:
select rating
Please do not post tabs as comments. Select "correction" instead!