Oops, an error
Loading. Please wait.

Backstreet Boys bass

37 views 1 this week
no commentswrite comment
1 2 3 4 5
2 more votes to show rating
add to favorites
×
Save as Personal and add changes to this tab that will be seen only by you. Learn more ›
×
You can save this tab as Personal to edit and correct it or add notes. All changes will be seen only by you. Learn more »
launch autoscroll
font size
0
reset
guitar tuner
edit
Autoscroll
slow
fast
+/-
esc
set tempo
stop
Author
Difficulty
Song: Backstreet Boys
Artist: Antisocial
Album: Made In England
Genre: Oi!
Year: 1982

Hey guys! This is the bass tab of the song; I made it by ear... so I hope it's 100% correct.
Anyway, enjoy the Antisocial!

Intro:

G:-------
D:-------
A:-------
E:---5---

Verse:

G:-----------------------------------------
D:-----------------------------------------
A:------------7-777777-3-333333-5-555555---
E:---5-555555------------------------------

Chorus:

G:------------------------
D:---3-333333-------------
A:------------3333-5555---
E:------------------------

Outro:

G:---------------------
D:---3-333333----------
A:------------3333-5---
E:---------------------

The order is:
.Intro x1
.Verse x4
.Chorus x4
.Verse x4
.Chorus x4
.Bridge x4
.Verse x4
.Chorus x4
.Verse x4
.Chorus x3
.End x1





Tab by: mdc_ivan


Suggest correction
Creating personal tab
Creating personal tab
You can edit any tab online and save it as your Personal.

You can edit, replace or remove any tab part or add personal notes – all changes will be seen only by you.

Personal tabs can be accessed anytime from any device, even offline.
Learn more »
Give kudos to tab author, rate the tab!
1 2 3 4 5
comments
print report bad tab
guest
You may want to rate the tab now too:
select rating
Wanna post a correction for this tab? Suggest correction