Oops, an error
Loading. Please wait.

Forever Winter Tab

version 1
version 1

Intro

Interactive

2,341 views 1 this week
no commentswrite comment
1 2 3 4 5
2 more votes to show rating
add to favorites
launch autoscroll
font size
0
reset
how to read this tab
guitar tuner
Autoscroll
slow
fast
+/-
esc
set tempo
stop
Help us to improve Ultimate-Guitar.com Take our survey!
×
Author
Tabbed by: horse.manic@yahoo.com  
Tuning: Drop D [ D A D G B E ]
this is the intro of the song which is originally played by keyboard . this can 
also be played in a distorted  guitar..


E||-------------------------------|------------------------------|
B||-------------------------------|------------------------------|
G||-----------------4-------------|------------------------------|
D||--------5--4--5-------5--4-----|-------5--4--5--7----5--4-----|
A||---7------------------------7--|--7------------------------5--|
D||-------------------------------|------------------------------|


                                                           
---------------------------|------------------------------|
---------------------------|--------------------8----7----|
----------------4-------4--|--5--4--5--7--5--7------------|
-------5--4--5-------7-----|------------------------------|
--7------------------------|------------------------------|
---------------------------|------------------------------|


repeat this all the time. first it is played along then the bass, drums and guitar joins in then.


     E                                   C               D   
E||-------------------------------|------------------------------|
B||-------------------------------|------------------------------|
G||-----------------4-------------|------------------------------|
D||--------5--4--5-------5--4-----|-------5--4--5--7----5--4-----|
A||---7------------------------7--|--7------------------------5--|
D||-------------------------------|------------------------------|


  E                                C               D          
---------------------------|------------------------------|
---------------------------|--------------------8----7----|
----------------4-------4--|--5--4--5--7--5--7------------|
-------5--4--5-------7-----|------------------------------|
--7------------------------|------------------------------|
---------------------------|------------------------------|




then the another part is like this. which makes the sound effects so interesting



-------------------------|-------------------------|-------------------------|
-------------------------|-------------------------|-------------------------|
-------------------------|-------------------------|-------------------------|
-------5--4--------------|---------------5----4----|-------5--4--------------|
--7----------7--5--------|-------5----7------------|--7----------7--5--------|
-------------------------|--7----------------------|-------------------------|


                                                           
--------------------------------|-------------------------|
--------------------------------|-------------------------|
--------------------------------|-------------------------|
--7----5----4----5----4---------|-------5--4--------------|
---------------------------5----|--7----------7--5--------|
--------------------------------|-------------------------|


                                                    
-------------------------|-------------------------|
-------------------------|-------------------------|
-------------------------|-------------------------|
---------------5----4----|-------5--4--------------|
-------5----7------------|--7----------7--5--------|
--7----------------------|-------------------------|


                                                                
--------------------------------|------------------------------|
--------------------------------|------------------------------|
--------------------------------|----------------4-------------|
--7----5----4----5----4---------|-------5--4--5-------5--4-----|
---------------------------5----|--7------------------------7--|
--------------------------------|------------------------------|



and again start the intro with chords....E........C......D...
play the chords like this in a distorted guitar
  E                  C        D          E              E            
-------------------|--------------------|------------------------------|
-------------------|--------------------|------------------------------|
-------------------|--------------------|------------------------------|
--9----------------|--5--------7--------|--9-------------9-------------|
--7----------------|--3--------5--------|--7----7--7--7--7----7--7--7--|
-------------------|--------------------|------------------------------|
this is played after intro.              This is played with verse.

 C             C

---------------------------|
---------------------------|
---------------------------|
-5-------------7-----------|
-3----3--3--3--5--5--5--5--|
---------------------------|

                                 and repeat it all over again. 

i hope u'll enjoy this tab. heres the lyrics for you:

Like never ending pain 
The frost of misery 
Has taken over my life 


Besides the fountains of deep 
The vengeance shall be taken chill on forever 
Like the night that never belight 
This forest shall never enlight 

Like the virgin forest that whisper to thee 
Darkest of the night that shall never be day 
Like the wolf that shiever in snow 
Blood moon stars they howl above 

Forever bless the winter 
The seasons of the pain 
Always eternal and so are my pain


Forever winter 

Enter the nightmare insane like we are 
Behold angel they all eternally want divinity 
Never see what u ever want to get through your soul 
Never come just learn demise 
Angels burn like immortal flame 
Return to the seasons of the dead 
Always, forever winter
Suggest correction
Give kudos to tab author, rate the tab!
1 2 3 4 5
comments
print report bad tab
guest
You may want to rate the tab now too:
select rating
Wanna post a correction for this tab? Suggest correction