Oops, an error
Loading. Please wait.

Redemption tab

31 views 1 this week
no commentswrite comment
1 2 3 4 5
3 more votes to show rating
add to favorites
×
Save as Personal and add changes to this tab that will be seen only by you. Learn more ›
×
You can save this tab as Personal to edit and correct it or add notes. All changes will be seen only by you. Learn more »
launch autoscroll
font size
0
reset
how to read this tab
guitar tuner
edit
Autoscroll
slow
fast
+/-
esc
set tempo
stop
About this tab version
This is the first tab of this song. Was this info helpful? Yes No
Album: Leaving Eden (2007)
Antimatter
Cover by Darth_Revan_

[Intro]
(Guitar 1, 2 w/ neck pickup and clean)
e|----------------------------|-----------------------------|
B|----------0------------0----|----------0------------0-----|
G|-------0------------0-------|-------0------------0--------| 
D|----4------------4----------|----4------------4-----------|
A|-3-------------------------.|-3---------------------------|
E|--------------0-------------|--------------0--------------|

I should take what's left of this for myself
I've had the pieces stripped
By long hands feeding small minds
And I never thought that this could come back
I failed to do it right
And took long strides into the firing line
And the less I feel alive the less I feel alive

e|----------------------------|-----------------------------|
B|----------0------------0----|----------0------------0-----|
G|-------0------------0-------|-------0------------0--------| (x4)
D|----4------------4----------|----4------------4-----------|
A|-3-------------------------.|-3---------------------------|
E|--------------0-------------|--------------0--------------|

[Chorus]

Who lifts the sin from the man?
Who lifts the sin from the man?

e|-0----------0--------------|
B|--0----------0-------------|
G|---0----------0------------|(x2)
D|----2----------2-----------|
A|-----3----------2----------|
E|---------------------------|

Who lifts the sin from the man?...ooohhh...

(Guitar 1 w/neck pickup)
e|-0-------------------------|----------------------------|
B|--0------6\8-8\10--6\8-8\--|-10---8\10-10\12--6\8-8\10--|
G|---0-------------9---------|---9------------9-----------|
D|----2----------------------|----------------------------|
A|-----3---------------------|----------------------------|
E|------0--------------------|----------------------------|

e|--------------------------|-----------------------------|
B|-10\12---\8-\12-\8-\12----|---------------6\8-8\10--6\8-|
G|------9-9--9------9-----6\|9/7\9--6\9/7\9---------9-----|
D|--------------------------|-----------------------------|
A|--------------------------|-----------------------------|
E|--------------------------|-----------------------------|

e|--------------------------|-----------------------------|
B|-8\10--6\8-8\10-10\12--6\8|-8\10-10\12----\8-\12-\8-\12-|
G|-----9---------------9----|-----------9-9---9------9----|
D|--------------------------|-----------------------------|
A|--------------------------|-----------------------------|
E|--------------------------|-----------------------------|

(Guitar 2 w/ neck pickup)
e|-0-------------------0-----|
B|--0-------------------0----|
G|---0-------------------0---|(x3)
D|----2-------------------2--|
A|-----3-------------------2-|
E|---------------------------|

From the corner of the ring we gave up
The optimist had died, leaving the black side to tow the line

(Guitar 1, w/neck pickup and light overdrive(
e|----------------------------|-----------------------------|
B|----------0------------0----|----------0------------0-----|
G|-------0------------0-------|-------0------------0--------|(x2) 
D|----4------------4----------|----4------------4-----------|
A|-3-------------------------.|-3---------------------------|
E|--------------0-------------|--------------0--------------|

(Guitar 2, with neck pickup and clean)
e|----------------------------|-----------------------------|
B|----------0------------0----|----------0------------0-----|
G|-------0------------0-------|-------0------------0--------|(x2)
D|----4------------4----------|----4------------4-----------|
A|-3-------------------------.|-3---------------------------|
E|--------------0-------------|--------------0--------------|

[Solo 1]

(Guitar 1, change to bridge pickup and increase ovedrive slowly)
e|-----0--------------------|-------------------------------|
B|----0---------------------|-------------------------------|
G|---0----------------------|-12-14-14fb-14fb-14br12-14fb---|
D|--2-----------5-5--5-5-\14|-------------------------------|
A|-2------------3-3--3-3----|-------------------------------|
E|--------------------------|-------------------------------|

e|--------------------------|-------------------------------|
B|--------------------------|---------15--------------------|
G|-14fb-14br12--12~-\14-14hb|-12~-14fb--14fb~-----12-11-----|
D|------------14------------|---------------14~-14-----12---|
A|--------------------------|----------------------------14/|
E|--------------------------|-------------------------------|

e|--------------------------|-------------------------------|
B|--------------------------|-----------------------14------|
G|----12-14-14fb-14fb-14br12|-14fb-14fb-14br12--\14-14hb-12~|
D|-\14----------------------|-----------------14------------|
A|--------------------------|-------------------------------|
E|--------------------------|-------------------------------|

e|--------------------------|----------|        
B|--------------------------|----------|
G|---12-11hb---------12-14--|-14br-12~-|
D|-14--------12---\14-------|----------|
A|-------------14-----------|----------|
E|--------------------------|----------|

(Guitar 2 for 1st solo w/ovedrive and bridge pickup)
e|--------------------------|---------------------------------| 
B|----------0----------0----|---------------------------------|
G|-------0----------0-------|---------------------------------|
D|----4----------4----------|-5-5-5-5-5--2-2-2-2-2--5-5-5-5-5-|
A|-3------------------------|-3-3-3-3-3--0-0-0-0-0--3-3-3-3-3-|
E|------------0-------------|---------------------------------|

e|--------------------------|---------------------------------|
B|--------------------------|---------------------------------|
G|--------------------------|---------------------------------|
D|-2-2-2-2-2--5-5-5-5-4---2-|-2-2-2-2--5-5-5-5-5--2-2-2-2-2---|
A|-2-2-2-2-2--3-3-3-3-2---0-|-0-0-0-0--3-3-3-3-3--2-2-2-2-2---|
E|-0-0-0-0-0----------------|---------------------0-0-0-0-0---|

[Solo 2]

(Guitar 1, w/ovedrive and bridge pickup)
e|--------------------------|-------------------------------|
B|-10--10~--10~--10~--10~---|-10-10~-10~-10~--10~--10-12br12|
G|---12---12---12---12---12-|------12--12---12-- 12---------|
D|--------------------------|-------------------------------|
A|--------------------------|-------------------------------|
E|--------------------------|-------------------------------|

e|-----------12------12-----|12------12-------12-----12-|
B|-10~--10~------10~-----10~|----10~------10~--10--10---|
G|----12---12--12---12-12---|--12---12--12---12--12-----|
D|--------------------------|---------------------------|
A|--------------------------|---------------------------|
E|--------------------------|---------------------------|

(Guitar 2, rhythm guitar w/ovedrive and bridge pickup)
e|--------------------------|---------------------------------|
B|--------------------------|---------------------------------|
G|--------------------------|---------------------------------|
D|-3-3-2-3-3--7-7-7-7-7--3-3|-3-3-3--7-7-7-7-5-4--3-3-3-3-3---|
A|-3-3-3-3-3--7-7-7-7-7--3-3|-3-3-3--7-7-7-7-3-2--3-3-3-3-3---|
E|-1-1-1-1-1--5-5-5-5-5--1-1|-1-1-1--5-5-5-5------1-1-1-1-1---|

e|--------------------------|
B|--------------------------|-
G|--------------------------|
D|-7-7-7-7-7---7-7-7-7-7----|
A|-7-7-7-7-7---7-7-7-7-7----|
E|-5-5-5-5-5---5-5-5-5-5----|

Who is the sin from the man, who is the sin?

[Solo 3]
(Guitar 1 w/ovedrive and bridge pickup)
e|-12-12--12-12--12--12-12--|-12-12-12--12-12--12-12--12--12|
B|-15fb---15fb---15fb---15fb|-15fb------15fb---15fb---15fb--|
G|--------------------------|-------------------------------|
D|--------------------------|-------------------------------|
A|--------------------------|-------------------------------|
E|--------------------------|-------------------------------|

e|-12-12--\15--15-15--15-15-|-15-15--15-15--15-15--15-15----|
B|-15fb---\18fb-------18fb--|-18fb---18fb---18fb---18fb-----|
G|--------------------------|-------------------------------|
D|--------------------------|-------------------------------|
A|--------------------------|-------------------------------|
E|--------------------------|-------------------------------|

e|-15-15--\19-19-19--19-19--|-----19----19----19-----19----19-|
B|-18fb---\22gb------22fb---|-22fb--22fb~--22fb~--22fb~-22fb~-|
G|--------------------------|---------------------------------|
D|--------------------------|---------------------------------|
A|--------------------------|---------------------------------|
E|--------------------------|---------------------------------|

(Guitar 2 rhythm w/ovedrive and bridge pickup)
e|--------------------------|-------------------|       
B|--------------------------|-------------------|
G|--------------------------|-------------------|(x2)
D|-5-5-5-5-5--2-2-2-2-2--5-5|-5-5-5--2-2-2-2-2--|
A|-3-3-3-3-3--2-2-2-2-2--3-3|-3-3-3--2-2-2-2-2--|
E|------------0-0-0-0-0-----|--------0-0-0-0-0--|

[Outro]

Looks like it's gonna be another one of those rainy days again...
Looks like it's gonna be another one of those rainy days again...

(Guitar 1, 2 w/ovedrive and neck pickup)
e|--------------------------|-------------------|       
B|--------------------------|-------------------|
G|--------------------------|-------------------|
D|-5-5-5-5-5--2-2-2-2-2--5-5|-5-5-5--2-2-2-2-2--|(x2)
A|-3-3-3-3-3--2-2-2-2-2--3-3|-3-3-3--2-2-2-2-2--|
E|------------0-0-0-0-0-----|--------0-0-0-0-0--|

(Guitar 1 w/ overdrive and neck pickup)
e|------------------------------|-----------------------------|-
B|------------------------------|-----------------------------|
G|-9-\12\14-/9---9-\12\14-/16/9-|-9-\12\11-/16---7\9/7\9------|(x2)
D|------------------------------|-----------------------------|
A|-7-\10\12-/7---7-\10\12-/14/7-|-7-\10\9--/14---5\7/5\7------|
E|------------------------------|-----------------------------|

(Guitar 2 w/ovedrive and neck pickup)
e|--------------------------|-------------------|       
B|--------------------------|-------------------|
G|--------------------------|-------------------|
D|-5-5-5-5-5--2-2-2-2-2--5-5|-5-5-5--2-2-2-2-2--|(x3)
A|-3-3-3-3-3--2-2-2-2-2--3-3|-3-3-3--2-2-2-2-2--|
E|------------0-0-0-0-0-----|--------0-0-0-0-0--|



***************************************************************

| \ /       Slide down/up
| ~         Vibrato
| b         bend
| fb        full bend
| hb        half bend
| br        bend release


****************************************************************

            
            
Suggest correction
Creating personal tab
Creating personal tab
You can edit any tab online and save it as your Personal.

You can edit, replace or remove any tab part or add personal notes – all changes will be seen only by you.

Personal tabs can be accessed anytime from any device, even offline.
Learn more »
Give kudos to tab author, rate the tab!
1 2 3 4 5
comments
print report bad tab
guest
You may want to rate the tab now too:
select rating
Wanna post a correction for this tab? Suggest correction