Oops, an error
Loading. Please wait.

Eat More Possum album bass

22 views 1 this week
no commentswrite comment
1 2 3 4 5
3 more votes to show rating
add to favorites
×
Save as Personal and add changes to this tab that will be seen only by you. Learn more ›
×
You can save this tab as Personal to edit and correct it or add notes. All changes will be seen only by you. Learn more »
launch autoscroll
font size
0
reset
guitar tuner
edit
Autoscroll
slow
fast
+/-
esc
set tempo
stop
1.Intro: The Cosmic Commander Of Wrestling. (No music)

****************************************************************************************************************

2.Today Your Love...

Verses
G-----------------------------------------|-----------------------------------|
D-----------------------------------------|-----------------------------------|
A-3-3-3-3---------6/7-7-6/7-7-6/7-7-6/7-7-|-3-3-3-3---------7-7-7-7-6/7-7-7-7-|
E---------3-3-3-3-------------------------|---------3-3-3-3-------------------|

G-----------------------------------------|-----------------------------------|
D-----------------------------------------|-----------------------------------|
A-3-3-3-3---------6/7-7-6/7-7-6/7-7-6/7-7-|-3-3-3-3---------7-7-7-7-6/7-7-7-7-|
E---------3-3-3-3-------------------------|---------3-3-3-3-------------------|

Bridge ("Little German Boy...")
G------------------|------------------|------------------|------------------|
D------------------|------------------|------------------|------------------|
A-5-5-5-5--7-7-7-7-|-5-5-5-5--7-7-7-7-|-5-5-5-5--7-7-7-7-|-5-5-5-5--7-7-7-7-|
E------------------|------------------|------------------|------------------|

Play it all 3 times in that exact order and that's the whole song.

****************************************************************************************************************

3. Stormtrooper 

Verse
G------------------------------------------------------|
D------------------------------------------------------|
A-2-2-2-2-2-2-2-2-2--5-5-5-5--2-2-2-2-2-2-2-2-2--5-----|
E---------------------------------------------------5--|


Chorus
G---------|---------|---------|---------|
D---------|---------|---------|---------|
A-2---5-5-|-2---5-5-|-2---5-5-|-7-7-7-7-|
E---------|---------|---------|---------|

****************************************************************************************************************

4. I've Aged 20 Years In 5

Intro
G---------------------------------|
D---------------------------------|
A---------------------------------|
E-3-3-3-3-3-3-3-3-3-3-3-3-3-3-3-3-|

Main Part                       x2  
G---------------------------------|---------------------------------------------------------|
D---------------------------------|---------------------------------------------------------|
A---------------------------------|-3-3-3-3-3-3-3-3---------3-3-3-3---------5-5-5-5---------|
E-3-3-3-3-3-3-3-3-3-3-3-3-3-3-3-3-|-----------------3-3-3-3---------3-3-3-3---------3-3-3-3-|

Outro
G---------------------------------|
D---------------------------------|
A---------5-5-5-5-----------------|
E-3-3-3-3---------3-3-3-3-3-3-3-3-|


Order is :
Intro       x1
Main Part   x5
Outro       x1

****************************************************************************************************************

5. Cactus Jack

Intro
G--------------------------|
D--------------------------|
A--------------------------|
E------7-------------------|

Verse
G----------------------------------------------------------------------|
D----------------------------------------------------------------------|
A----------------------------------------------------------------------|
E-7-5-7--7-5-7--7-5-7--7-5-7--7-5-7--7-5-7--7-5-7--7-5-7--7-5-7--7-5-7-|

G--------------------------------------------------------|
D--------------------------------------------------------|
A--7-5-7--7-5-7--7-5-7--7-5-7----------------------------|
E-----------------------------7-5-7--7-5-7--7-5-7--7-5-7-|

Chorus
G-------------------|
D-------------------|
A-9--------7--------|
E-------------------|

Order:
Intro
Verse
Chorus
Verse
Chorus

****************************************************************************************************************

6. Warning (no music)

****************************************************************************************************************

7. Animals... Eat Em

Verse
G---------------------7----------------------|
D--------------------------------------------|
A-2-2--2-2--2-2-2--5----2-2--2-2--2-2-2------|
E---------------------------------------3--5-|


Chorus
G----------------------------------------|
D----------------------------------------|
A-2--5-5-5--2---------2--5-5-5--2--------|
E-------------3-3--3--------------3-3--5-|

Listen for Order

****************************************************************************************************************

8.Glad I Am The Way I Am

Verse
G---------------------------------------------------------|
D---------------------------------------------------------|
A-----------------------3-3-3-----------------------5-5-3-|
E-5-5-5---5-5-5---5-5-5-------5-5-5---5-5-5---5-5-5-------|

Chorus
G---------------------|---------------------|---------------------|---------------------|
D---------------------|---------------------|---------------------|---------------------|
A-----5-3-------7-7-5-|-----5-3-------7-7-5-|-----5-3-------7-7-5-|-----5-3-------7-7-5-|
E-5-5-----5-5-5-------|-5-5-----5-5-5-------|-5-5-----5-5-5-------|-5-5-----5-5-5-------|


Listen for order

****************************************************************************************************************

9.The Dean Of Sods Speaks (No Music)

****************************************************************************************************************

10. Jack Starr (No Music)

****************************************************************************************************************

11. Destroy Them All

Intro
G-----------------------------------------------------------------|
D-----------------------------------------------------------------|
A-----------------------------------------------------------------|
E-2---------------0---------------2---------------0---------------|

Verse                             x4
G-----------------------------------|
D-----------------------------------|
A-----------------------------------|
E-2--2-0---2--2-0---2--2-0---2--2-0-|

Chorus
G---------------------------------------------------|---------------------------------------------------|
D---------------------------------------------------|---------------------------------------------------|
A-2-(hold)------------------------------------------|-2-(hold)------------------------------------------|
E-----------------2--2-0---2--2-0---2--2-0---2--2-0-|-----------------2--2-0---2--2-0---2--2-0---2--2-0-|

Just Listen for the order

****************************************************************************************************************

12. Shittin' In High Cotton

Intro
G----------------------------------------------------------------|
D-------9-------9-------9-------9-------7-------7------7-------7-|
A-9-9-9---9-9-9---9-9-9---9-9-9---7-7-7---7-7-7---7-7-7--7-7-7---|
E-7-7-7---7-7-7---7-7-7---7-7-7---5-5-5---5-5-5---5-5-5--5-5-5---|

G-------9-------9-------9-------9--------------------------------|
D-9-9-9---9-9-9---9-9-9---9-9-9---------9-------9---9--9---------|
A-7-7-7---7-7-7---7-7-7---7-7-7---9-9-9---9-9-9-----7--7---5-----|
E---------------------------------7-7-7---7-7-7------------------|


Verse
G----------------------------------------------------------------|
D-------9-------9-------9-------9-------7-------7----6----4------|
A-9-9-9---9-9-9---9-9-9---9-9-9---7-7-7---7-7-7------------------|
E-7-7-7---7-7-7---7-7-7---7-7-7---5-5-5---5-5-5------------------|

G-------9-------9--------7/9--7/9--------------------------------|
D-9-9-9---9-9-9---9-9-9-----------------9-------9---9--9---------|
A-7-7-7---7-7-7---7-7-7-----------9-9-9---9-9-9-----7--7---5-----|
E---------------------------------7-7-7---7-7-7------------------|


Chorus
G---------------------------------------------------|
D-------------------------9-------9-------9-------9-|
A-5-5-5-5--7-7-7-7--9-9-9---9-9-9---9-9-9---9-9-9---|
E-------------------7-7-7---7-7-7---7-7-7---7-7-7---|

G--9-10-9-7-7-9-10-9-7----------------------------------|
D-0---------------------------9-------9-------9-------9-|
A---------------------7-9-9-9---9-9-9---9-9-9---9-9-9---|
E-----------------------7-7-7---7-7-7---7-7-7---7-7-7---|

That's it, just listen for the order

****************************************************************************************************************

13. Star Whore

Intro
G-----------------------------------------------------|
D-----------------------------------------------------|
A-----------------------------------------------------|
E--------------7------------7------------7------------|

G-----------------------------------------------------|
D-----------------------------------------------------|
A-----------5----------5--------------5----------5----|
E-7-7-7-7-5----7-7-7-7---5--7-7-7-7-5----7-7-7-7---5--|

Verse                                               x4
G-----------------------------------------------------|
D-----------------------------------------------------|
A-----------5----------5--------------5----------5----|
E-7-7-7-7-5----7-7-7-7---5--7-7-7-7-5----7-7-7-7---5--|

Chorus                                                              x2
G---------------------------------------------------------------------|
D---------------------------------------------------------------------|
A---------------------------------------------------------------------|
E-7-7-7-7-7-7-7-7--5-5-5-5-5-5-5-5--3-3-3-3-3-3-3-3--5-5-5-5-5-5-5-5--|

After 1st Chorus
G-----------------------------------------------------------------|
D-----------------------------------------------------------------|
A-----------------------------------------------------------------|
E-7-7-7-7-7-7-7-7-7-7-7-7-7-7-7-7-7-7-7-7-7-7-7-7-7-7-7-7-7-7-7-7-|

Verse                                               x5
G-----------------------------------------------------|
D-----------------------------------------------------|
A-----------5----------5--------------5----------5----|
E-7-7-7-7-5----7-7-7-7---5--7-7-7-7-5----7-7-7-7---5--|

Chorus                                                              x2
G---------------------------------------------------------------------|
D---------------------------------------------------------------------|
A---------------------------------------------------------------------|
E-7-7-7-7-7-7-7-7--5-5-5-5-5-5-5-5--3-3-3-3-3-3-3-3--5-5-5-5-5-5-5-5--|

Outro
G-----------------------------------------------------|------|
D-----------------------------------------------------|------|
A-----------5----------5--------------5----------5----|------|
E-7-7-7-7-5----7-7-7-7---5--7-7-7-7-5----7-7-7-7---5--|-7----|

That's the whole song, in order too

****************************************************************************************************************

14. Break It Off

Whole Song
G---------------------------------------------|
D---------------------------------------------|
A--------3-3--------5-3--------3-3--------5-3-|
E-5-5-5------5-5-5------5-5-5------5-5-5------|


this is the whole song, just repeated over and over again. The only variance is 
right after the chorus it's just guitar only for 2 bars, then you slide back in


Chorus                                      x2                                             Slide back in
G---------------------------------------------|---------------------------------------------|-------|
D---------------------------------------------|---------------------------------------------|-------|
A--------3-3--------5-3--------3-3--------5-3-|---------------------------------------------|--12/0-|
E-5-5-5------5-5-5------5-5-5------5-5-5------|---------------------------------------------|-------|

****************************************************************************************************************

15. Jack B. Gets Framed (No Music)

****************************************************************************************************************

16. Trapped In Dixie

Intro    
G---------------------------------|
D---------------------------------|
A-5-5-5-5-5-5-5-5-5-5-5-5-5-5-5-5-|
E---------------------------------|

Verse
G---------------------------------|
D---------------------------------|
A-5-5-5-5-5-5-5-5-----------------|
E-----------------3-3-3-3-5-5-5-5-|


Chorus          x4 
G-----------------|-----------------|
D-----------------|-----------------|
A-3-3-3-3-5-5-5-5-|-7-7-7-7-7-7-7-7-|
E-----------------|-----------------|

Just Listen For Order

****************************************************************************************************************

17. Fuck All Y'All

Intro
G----------------------------|----------------------------|
D----------------------------|----------------------------|
A----------------------------|----------------------------|
E----------------------------|-9(Hold)--------------------|

Verse
G----------------------------|
D----------------------------|
A--------------------7---9---|
E-9-9-9-9-9-9-9-9-9----------|

Prechorus
G-------------------------|
D-------------------------|
A---7-9---7-9---7-9---9---|
E-9-----9-----9-----9---7-|

Chorus            ("Fuck all y'all")
G------------------------------------|
D------------------------------------|
A------------------------------------|
E-9---------9------------------------|

Listen For Order

****************************************************************************************************************

18. Jack Starr #2 (No Music)

            
            
Suggest correction
Creating personal tab
Creating personal tab
You can edit any tab online and save it as your Personal.

You can edit, replace or remove any tab part or add personal notes – all changes will be seen only by you.

Personal tabs can be accessed anytime from any device, even offline.
Learn more »
Give kudos to tab author, rate the tab!
1 2 3 4 5
comments
print report bad tab
guest
You may want to rate the tab now too:
select rating
Wanna post a correction for this tab? Suggest correction