Oops, an error
Loading. Please wait.

Fight Like Apes Bass Tab

7 views 1 this week
no commentswrite comment
1 2 3 4 5
3 more votes to show rating
add to favorites
launch autoscroll
font size
0
reset
guitar tuner
Autoscroll
slow
fast
+/-
esc
set tempo
stop
Help us to improve Ultimate-Guitar.com Take our survey!
×
Author
Difficulty
Intro
G|-------------------------|-------------------------|-------------------------|-------------------------|
D|-------------------------|-------------------------|-------------------------|-------------------------|
A|-8---2-------7---8-------|-8---2-------7---8-------|-8---2-------7---8-------|-8---2-------7---8-------|
E|-------------------------|-------------------------|-------------------------|-------------------------|


Verse
G|----------------------------------|----------------------------------|----------------------------------|
D|----------------------------------|----------------------------------|----------------------------------|
A|-7-7-7-7-7-7-7-7--7-7-7-7-7-7-7-8-|-7-7-7-7-7-7-7-7--7-7-7-7-7-7-7-8-|-7-7-7-7-7-7-7-7--7-7-7-7-7-7-7-8-|
E|----------------------------------|----------------------------------|----------------------------------|
                                     ("When I Was A Baby Ape...")
G|----------------------------------|----------------------------------|----------------------------------|
D|----------------------------------|----------------------------------|----------------------------------|
A|-7-7-7-7-7-7-7-7--7-7-7-7-7-7-7-8-|-7-7-7-7-7-7-7-7--7-7-7-7-7-7-7-8-|-7-7-7-7-7-7-7-7--7-7-7-7-7-7-7-8-|
E|----------------------------------|----------------------------------|----------------------------------|

G|----------------------------------|----------------------------------|
D|----------------------------------|----------------------------------|
A|-7-7-7-7-7-7-7-7--7-7-7-7-7-7-7-8-|-7-7-7-7-7-7-7-7--7-7-7-7-7-7-7-8-|
E|----------------------------------|----------------------------------|


Chorus                              ("Gorilla Up, Human Down...")
G|---------------------------------|---------------------------------|---------------------------------|
D|---------------------------------|---------------------------------|---------------------------------|
A|---------1-------7-7-7-7-7-7-7-7-|---------1-------7-7-7-7-7-7-7-7-|---------1-------7-7-7-7-7-7-7-7-|
E|-3-------------------------------|-3-------------------------------|-3-------------------------------|

G|---------------------------------|-----------------|
D|---------------------------------|-----------------|
A|---------1-------7-7-7-7-7-7-7-7-|---------1-------|
E|-3-------------------------------|-3---------------|


Verse 2                                                              ("Beneath The Earth Our Horses Ride...")
G|----------------------------------|----------------------------------|----------------------------------|
D|----------------------------------|----------------------------------|----------------------------------|
A|-7-7-7-7-7-7-7-7--7-7-7-7-7-7-7-8-|-7-7-7-7-7-7-7-7--7-7-7-7-7-7-7-8-|-7-7-7-7-7-7-7-7--7-7-7-7-7-7-7-8-|
E|----------------------------------|----------------------------------|----------------------------------|

G|----------------------------------|----------------------------------|----------------------------------|
D|----------------------------------|----------------------------------|----------------------------------|
A|-7-7-7-7-7-7-7-7--7-7-7-7-7-7-7-8-|-7-7-7-7-7-7-7-7--7-7-7-7-7-7-7-8-|-7-7-7-7-7-7-7-7--7-7-7-7-7-7-7-8-|
E|----------------------------------|----------------------------------|----------------------------------|


Chorus                              ("Gorilla Up, Human Down...")
G|---------------------------------|---------------------------------|---------------------------------|
D|---------------------------------|---------------------------------|---------------------------------|
A|---------1-------7-7-7-7-7-7-7-7-|---------1-------7-7-7-7-7-7-7-7-|---------1-------7-7-7-7-7-7-7-7-|
E|-3-------------------------------|-3-------------------------------|-3-------------------------------|

G|---------------------------------|-----------------|---------|
D|---------------------------------|-----------------|---------|
A|---------1-------7-7-7-7-7-7-7-7-|---------1-------|-7-------|
E|-3-------------------------------|-3---------------|---------|

Suggest correction
Give kudos to tab author, rate the tab!
1 2 3 4 5
comments
print report bad tab
guest
You may want to rate the tab now too:
select rating
Wanna post a correction for this tab? Suggest correction