Oops, an error
Loading. Please wait.

I Dont Care bass

16 views 1 this week
no commentswrite comment
1 2 3 4 5
3 more votes to show rating
add to favorites
×
Save as Personal and add changes to this tab that will be seen only by you. Learn more ›
×
You can save this tab as Personal to edit and correct it or add notes. All changes will be seen only by you. Learn more »
launch autoscroll
font size
0
reset
guitar tuner
edit
Autoscroll
slow
fast
+/-
esc
set tempo
stop
Main Riff
G----------------------------|----------------------------|
D----------------------------|----------------------------|
A-2-2--0-2-0-2-0-------------|-2-2--0-2-0-2-0-------------|
E----------------3-3-3-5-5-5-|----------------3-3-3-5-5-5-|

G----------------------------|----------------------------|
D----------------------------|----------------------------|
A-2-2--0-2-0-2-0-------------|-2-2--0-2-0-2-0-------------|
E----------------3-3-3-5-5-5-|----------------3-3-3-5-5-5-|


Bridge (0:39 Seconds)
G---------------------------------------------------|----------------------------|
D---------------------------------------------------|----------------------------|
A-2-2-2-2-2-2-2-2-----------------------------------|-2-2--0-2-0-2-0-------------|
E-----------------5-5-5-5-5-5-5-5--3-3-3-3--5-5-5-5-|----------------3-----5-----|


End with:
G--------------|
D--------------|
A-2-2--0--2----|
E--------------|


That's all there is to it. You play the main riff endlessly, then hit the bridge at the 39 second mark, then
back into the main riff and that's really it. A Classic Ramones tune off of Antiseen's 1989 classic "Noise For
The Sake Of Noise"

            
            
Suggest correction
Creating personal tab
Creating personal tab
You can edit any tab online and save it as your Personal.

You can edit, replace or remove any tab part or add personal notes – all changes will be seen only by you.

Personal tabs can be accessed anytime from any device, even offline.
Learn more »
Give kudos to tab author, rate the tab!
1 2 3 4 5
comments
print report bad tab
guest
You may want to rate the tab now too:
select rating
Wanna post a correction for this tab? Suggest correction