Oops, an error
Loading. Please wait.

If I Had A Thousand Dollars Bass Tab

7 views 1 this week
no commentswrite comment
1 2 3 4 5
3 more votes to show rating
add to favorites
launch autoscroll
font size
0
reset
guitar tuner
Autoscroll
slow
fast
+/-
esc
set tempo
stop
Help us to improve Ultimate-Guitar.com Take our survey!
×
Author
Difficulty
intermediate
Intro
G---------4-----4------7-----7---2-----2--4-2-------------4-----4-----7-----7---2-----2----7-9-10b-10-9-7-|
D---------------------------------------------4-2---2-4----------------------------------9----------------|
A--12/--2---2-2----5-5---5-5---0---0-0------------4-----2---2-2---5-5---5-5---0---0-0---------------------|
E---------------------------------------------------------------------------------------------------------|

Chorus ("If I Had A Thousand Dollars, I'd Be A Millionaire") 
G------------------------------------|------------------------------------|
D------------------------------------|------------------------------------|
A-2-2-2-2--5-5-5-5--0-0-0-0--2-2-2-2-|-2-2-2-2--5-5-5-5--0-0-0-0--2-2-2-2-|
E------------------------------------|------------------------------------|

G------------------------------------|------------------------------------|
D------------------------------------|------------------------------------|
A-2-2-2-2--5-5-5-5--0-0-0-0--2-2-2-2-|-2-2-2-2--5-5-5-5--0-0-0-0--2-2-2-2-|
E------------------------------------|------------------------------------|

("You're All Fucked...")
G---------------------------------------|---------------------------------------|
D---------------------------------------|---------------------------------------|
A-2-0-2---2-0-2---2-0-2---0---0-0-0-0-0-|-2-0-2---2-0-2---2-0-2---0---0-0-0-0-0-|
E---------------------------------------|---------------------------------------|

Chorus ("If I Had A Thousand Dollars, I'd Be A Millionaire") 
G------------------------------------|------------------------------------|
D------------------------------------|------------------------------------|
A-2-2-2-2--5-5-5-5--0-0-0-0--2-2-2-2-|-2-2-2-2--5-5-5-5--0-0-0-0--2-2-2-2-|
E------------------------------------|------------------------------------|

G------------------------------------|------------------------------------|
D------------------------------------|------------------------------------|
A-2-2-2-2--5-5-5-5--0-0-0-0--2-2-2-2-|-2-2-2-2--5-5-5-5--0-0-0-0--2-2-2-2-|
E------------------------------------|------------------------------------|

("You're All Fucked...")
G---------------------------------------|---------------------------------------|
D---------------------------------------|---------------------------------------|
A-2-0-2---2-0-2---2-0-2---0---0-0-0-0-0-|-2-0-2---2-0-2---2-0-2---0---0-0-0-0-0-|
E---------------------------------------|---------------------------------------|

Bridge 
G---------4-----4------7-----7---2-----2--4-2-------------4-----4-----7-----7---2-----2----7-9-10b-10-9-7-|
D---------------------------------------------4-2---2-4----------------------------------9----------------|
A--12/--2---2-2----5-5---5-5---0---0-0------------4-----2---2-2---5-5---5-5---0---0-0---------------------|
E---------------------------------------------------------------------------------------------------------|

G---4-----4------7-----7---2-----2--4-2-------------4-----4-----7-----7---2-----2----7-9-10b-10-9-7-|
D---------------------------------------4-2---2-4----------------------------------9----------------|
A-2---2-2----5-5---5-5---0---0-0------------4-----2---2-2---5-5---5-5---0---0-0---------------------|
E---------------------------------------------------------------------------------------------------|


Chorus ("If I Had A Thousand Dollars, I'd Be A Millionaire") 
G------------------------------------|------------------------------------|
D------------------------------------|------------------------------------|
A-2-2-2-2--5-5-5-5--0-0-0-0--2-2-2-2-|-2-2-2-2--5-5-5-5--0-0-0-0--2-2-2-2-|
E------------------------------------|------------------------------------|

G------------------------------------|------------------------------------|
D------------------------------------|------------------------------------|
A-2-2-2-2--5-5-5-5--0-0-0-0--2-2-2-2-|-2-2-2-2--5-5-5-5--0-0-0-0--2-2-2-2-|
E------------------------------------|------------------------------------|

("You're All Fucked...")
G---------------------------------------|---------------------------------------|
D---------------------------------------|---------------------------------------|
A-2-0-2---2-0-2---2-0-2---0---0-0-0-0-0-|-2-0-2---2-0-2---2-0-2---0---0-0-0-0-0-|
E---------------------------------------|---------------------------------------|

G---------------------------------------|---------------------------------------|
D---------------------------------------|---------------------------------------|
A-2-0-2---2-0-2---2-0-2---0---0-0-0-0-0-|-2-0-2---2-0-2---2-0-2---0---0-0-0-0-0-|
E---------------------------------------|---------------------------------------|

This was originally a Rupture song (for which Jeff Clayton sang) anyway this is the 2016 version off the split
7inch from ANTiSEEN and HeWhoCannotBeNamed for Rusty Knuckles records. Sir Barry Hannibal on the bass.
Suggest correction
Give kudos to tab author, rate the tab!
1 2 3 4 5
comments
print report bad tab
guest
You may want to rate the tab now too:
select rating
Wanna post a correction for this tab? Suggest correction