Oops, an error
Loading. Please wait.

Needle And The Spoon Bass Tab

22 views 1 this week
no commentswrite comment
1 2 3 4 5
3 more votes to show rating
add to favorites
launch autoscroll
font size
0
reset
guitar tuner
Autoscroll
slow
fast
+/-
esc
set tempo
stop
Help us to improve Ultimate-Guitar.com Take our survey!
×
Author
Difficulty
Intro
G--------------------------|-----------------------|--------------------------|-----------------------|
D------------3-3-3---------|------------3-3-3------|------------3-3-3---------|------------3-3-3------|
A-5-5--3-3-3--------5--5-5-|-5-5--3-3-3--------5---|-5-5--3-3-3--------5--5-5-|-5-5--3-3-3--------5---|
E--------------------------|-----------------------|--------------------------|-----------------------|

Verse ("30 Days, Lord and 30 Nights...")
G--------------------------|-----------------------|--------------------------|-----------------------|
D------------3-3-3---------|------------3-3-3------|------------3-3-3---------|------------3-3-3------|
A-5-5--3-3-3--------5--5-5-|-5-5--3-3-3--------5---|-5-5--3-3-3--------5--5-5-|-5-5--3-3-3--------5---|
E--------------------------|-----------------------|--------------------------|-----------------------|

Chorus ("With the Needle and The Spoon...")
G-------------------------------------------------------|--------------------------|-----------------------|
D---------------3--3-3-3-3-3----------------------------|------------3-3-3---------|------------3-3-3------|
A-5--5-5-5-5-5---------------3--3-3-3-3-3--5--5-5-5-5-5-|-5-5--3-3-3--------5--5-5-|-5-5--3-3-3--------5---|
E-------------------------------------------------------|--------------------------|-----------------------|

Verse ("I've Been Feeling So Sick Inside...")
G--------------------------|-----------------------|--------------------------|-----------------------|
D------------3-3-3---------|------------3-3-3------|------------3-3-3---------|------------3-3-3------|
A-5-5--3-3-3--------5--5-5-|-5-5--3-3-3--------5---|-5-5--3-3-3--------5--5-5-|-5-5--3-3-3--------5---|
E--------------------------|-----------------------|--------------------------|-----------------------|

Chorus ("With the Needle and The Spoon...")
G-------------------------------------------------------|--------------------------|-----------------------|
D---------------3--3-3-3-3-3----------------------------|------------3-3-3---------|------------3-3-3------|
A-5--5-5-5-5-5---------------3--3-3-3-3-3--5--5-5-5-5-5-|-5-5--3-3-3--------5--5-5-|-5-5--3-3-3--------5---|
E-------------------------------------------------------|--------------------------|-----------------------|

Verse ("I Seen All The People..")
G--------------------------|-----------------------|--------------------------|-----------------------|
D------------3-3-3---------|------------3-3-3------|------------3-3-3---------|------------3-3-3------|
A-5-5--3-3-3--------5--5-5-|-5-5--3-3-3--------5---|-5-5--3-3-3--------5--5-5-|-5-5--3-3-3--------5---|
E--------------------------|-----------------------|--------------------------|-----------------------|

Chorus ("With the Needle and The Spoon...")
G-------------------------------------------------------|--------------------------|-----------------------|
D---------------3--3-3-3-3-3----------------------------|------------3-3-3---------|------------3-3-3------|
A-5--5-5-5-5-5---------------3--3-3-3-3-3--5--5-5-5-5-5-|-5-5--3-3-3--------5--5-5-|-5-5--3-3-3--------5---|
E-------------------------------------------------------|--------------------------|-----------------------|

G--------------------------|-----------------------|
D------------3-3-3---------|------------3-3-3------|
A-5-5--3-3-3--------5--5-5-|-5-5--3-3-3--------5---|
E--------------------------|-----------------------|

ANTiSEEN's Cover Of The Lynyrd Skynyrd classic. Tripp McNeil from Seducer on Bass. 
Suggest correction
Give kudos to tab author, rate the tab!
1 2 3 4 5
comments
print report bad tab
guest
You may want to rate the tab now too:
select rating
Wanna post a correction for this tab? Suggest correction