Oops, an error
Loading. Please wait.

Noise For The Sake Of Noise album bass

19 views 1 this week
no commentswrite comment
1 2 3 4 5
3 more votes to show rating
add to favorites
×
Save as Personal and add changes to this tab that will be seen only by you. Learn more ›
×
You can save this tab as Personal to edit and correct it or add notes. All changes will be seen only by you. Learn more »
launch autoscroll
font size
0
reset
guitar tuner
edit
Autoscroll
slow
fast
+/-
esc
set tempo
stop
1. On Your Knees

Intro
G-------------------|-------------------|
D-------------------|-9-----------------|
A-------------------|-------------------|
E-------------------|---------5----3----|


Verse
G-------------------|-------------------|-------------------|-------------------|
D-------------------|-------------------|-------------------|-------------------|
A-------------------|-------------------|-------------------|-------------------|
E-7-7-7-7-5----3----|-7-7-7-7-5----3----|-7-7-7-7-5----3----|-7-7-7-7-5----3----|


Chorus
G------------------|------------------|------------------|------------------|
D------------------|------------------|------------------|------------------|
A-7-7-7-7--5---5---|-7-7-7-7--5---5---|-7-7-7-7--5---5---|-7-7-7-7--5---5---|
E------------------|------------------|------------------|------------------|


Listen for order

**************************************************************************************************************

2.Two-Headed Dog

Main
G-------------------------------------------------------------|
D-------------------------------------------------------------|
A-------------------------------------------------------------|
E-5/7--7-7--5/7--7-7---5/7--7-7--5/7--7-7--3-3--5-5--5/7--7-7-|


Verse             x3
G-------------------|-----------------------------------------|------------|
D-------------------|-----------------------------------------|------------|
A-------------------|-----------------------------------------|------------|
E-3-3--5-5--7-7-7-7-|--5/7--7-7--5/7--7-7--3-3--5-5--5/7--7-7-|-3-3/7--7-7-|


Again, Listen for order

**************************************************************************************************************

3. Wifebeater

Verse
G-------------------|-------------------|-------------------|-------------------|
D-------------------|-------------------|-------------------|-------------------|
A-2--2--2--/14------|-2--2--2--/14------|-2--2--2--/14------|-2--2--2--/14------|
E-------------------|-------------------|-------------------|-------------------|

Chorus
G--------------------------------------------------|
D--------------------------------------------------|
A--------------------------------------------------|
E-5-5-5-5-4/5-5-5-4/5-5-5--5-5-5-5-4/5-5-5-4/5-5-5-|


Listen For the Order 


**************************************************************************************************************

4.Millworkin' Man


Main Riff
G------------------------------------------------------------------------|
D------------------------------------------------------------------------|
A------------------------------------------------------------------------|
E-0-0-3-0--0-0-3-0--0-0-3-0--0-0-3-0--0-0-3-0--0-0-3-0--0-0-3-0--0-0-3-0-|


Interlude  (Play this part at the 26 Second + 50 Second mark) 
G------------------------------------|
D------------------------------------|
A------------------------------------|
E-3-3-3-3--5-5-5-5--3-3-3-3--7-7-7-7-|


The main riff is played for the entire song except at the 26 + 50 second mark where you play the interlude


**************************************************************************************************************

5. Positively 4th Street

G---------------------------7-7-7----------------------------------|
D------------------------------------------------------------------|
A-----------------------------------------3-3-3-3--5-5-5-5-5-5-5-5-|
E---------------------------------3-3-3-3--------------------------|


G------------------------------------------------------------------|
D------------------------------------------------------------------|
A---------3-3-3-3---------5-5-5-5---------3-3-3-3--5-5-5-5-5-5-5-5-|
E-3-3-3-3---------3-3-3-3---------3-3-3-3--------------------------|


G--------------------------------------------------------------------|
D--------------------------------------------------------------------|
A---------3-3-3-3---------5-5-5-5---------3-3-3-3--5-5-5-17-17-17-17-|
E-3-3-3-3---------3-3-3-3---------3-3-3-3----------------------------|
         
                                                                 x4
G------------------------------------------------------------------|
D------------------------------------------------------------------|
A---------3-3-3-3---------5-5-5-5---------3-3-3-3--5-5-5-5-5-5-5-5-|
E-3-3-3-3---------3-3-3-3---------3-3-3-3--------------------------|


                                              
G----------------------------------------------------------7-7-7-7-|
D------------------------------------------------------------------|
A---------3-3-3-3---------5-5-5-5---------3-3-3-3--5-5-5-5---------|
E-3-3-3-3---------3-3-3-3---------3-3-3-3--------------------------|


                                                                 x2              
G------------------------------------------------------------------|
D------------------------------------------------------------------|
A---------3-3-3-3---------5-5-5-5---------3-3-3-3--5-5-5-5-5-5-5-5-|
E-3-3-3-3---------3-3-3-3---------3-3-3-3--------------------------|


G----------------------------------------------------------7-7-7-7-|
D------------------------------------------------------------------|
A---------3-3-3-3---------5-5-5-5---------3-3-3-3--5-5-5-5---------|
E-3-3-3-3---------3-3-3-3---------3-3-3-3--------------------------|

                                                                 x4              
G------------------------------------------------------------------|
D------------------------------------------------------------------|
A---------3-3-3-3---------5-5-5-5---------3-3-3-3--5-5-5-5-5-5-5-5-|
E-3-3-3-3---------3-3-3-3---------3-3-3-3--------------------------|


G-------------------------------------------------------------------------7-7-7-7-7-7-7-7-|-------|
D-----------------------------------------------------------------------------------------|-------|
A---------3---------------5---------------3--------5-5--5-5-5--5-5--5-5-5-----------------|-------|
E-3---------------3---------------3-------------------------------------------------------|-3-----|



**************************************************************************************************************

6. Cop Out

Verse
G-------------------------|
D-------------------------|
A-4-4-4-4--7--4-4-4-4--7--|
E-------------------------|


Chorus              x5    "Bye Bye"
G---------------------|----------------|
D---------------------|----------------|
A-4-------4-4-4-------|-2--------------|
E---------------------|----------------|


**************************************************************************************************************

7. Twisted Brain

Verse 
G---------------------|----------------------|
D---------------------|----------------------|
A---------------------|------5-5-------------|
E-3-3--5-5--7-7-7-7-7-|-3-3--------7-7-7-7-7-|


Chorus
G---------------------------------------------------------|---------------------|
D---------------------------------------------------------|---------------------|
A-------5-5-5-5-------5-5-5-5-------5-5-5-5-------5-5-5-5-|---------------------|
E-5-5-5---------5-5-5---------5-5-5---------5-5-5---------|-3-3--5-5--7-7-7-7-7-|



**************************************************************************************************************

8. Psycho Path

Intro (Guitar Only)
G--------------------------------------------------------------|
D--------------------------------------------------------------|
A--------------------------------------------------------------|
E--------------------------------------------------------------|

                                                             x9
G--------------------------------------------------------------|
D--------------------------------------------------------------|
A-0-0--0-0--0-0--3-3--3-3--3-3--5-5--5-5--5-5--7-7-7-7-7-7-7-7-|
E--------------------------------------------------------------|


Outro
G-----------------------------|
D-----------------------------|
A-7-7-7-7-7-7-7-7-------------|
E-----------------------------|


**************************************************************************************************************

9. Nothing's Cool

Verse                                                                               x4
G-----------------------------------------|-------------------------------------------|-----------------|
D-----------------------------------------|-------------------------------------------|-----------------|
A-----------------------------------------|---------5-5-5-5---------------------------|---------5-5-5-5-|
E---------------------------7-(Hold)------|-7-7-7-7---------5-5-5-5---7---7---7---7---|-7-7-7-7---------|


Chorus          ("Nothing's Cool...")
G-------------------------------------------|
D-------------------------------------------|
A-------------------------------------------|
E-7-----7-----7-----7(hold)-----------------|


The whole song is Verse-Chorus-Verse-Chorus that's it.

**************************************************************************************************************

10. I Don't Care

Main Riff
G----------------------------|----------------------------|
D----------------------------|----------------------------|
A-2-2--0-2-0-2-0-------------|-2-2--0-2-0-2-0-------------|
E----------------3-3-3-5-5-5-|----------------3-3-3-5-5-5-|

G----------------------------|----------------------------|
D----------------------------|----------------------------|
A-2-2--0-2-0-2-0-------------|-2-2--0-2-0-2-0-------------|
E----------------3-3-3-5-5-5-|----------------3-3-3-5-5-5-|


Bridge (0:39 Seconds)
G---------------------------------------------------|----------------------------|
D---------------------------------------------------|----------------------------|
A-2-2-2-2-2-2-2-2-----------------------------------|-2-2--0-2-0-2-0-------------|
E-----------------5-5-5-5-5-5-5-5--3-3-3-3--5-5-5-5-|----------------3-----5-----|


End with:
G--------------|
D--------------|
A-2-2--0--2----|
E--------------|


**************************************************************************************************************

11. Burnin' Money 

Intro                                                                                               x2
G---------------------------------|---------------------------------|---------------------------------| 
D---------------------------------|---------------------------------|---------------------------------|
A---------------------------------|-----------------5-------7-------|-----------------5-5-5-5-7-7-7-7-|
E---------------------------------|-7-------5-----------------------|-7-7-7-7-5-5-5-5-----------------|


Rest of Song
G---------------------------------|
D---------------------------------|
A-----------------5-5-5-5-7-7-7-7-|
E-7-7-7-7-5-5-5-5-----------------|


**************************************************************************************************************

12. Crack Of Dawn


Intro
G---------------------------------------------|---------------------------------------------|
D---------------------------------------------|---------------------------------------------|
A---------------------------------------------|-------------------5-7-------------------7-5-|
E-----------------------7-(hold)-------/19----|-7-7-7-7-7-7-7-7-7-----7-7-7-7-7-7-7-7-7-----|

 
Verse                                       x4
G---------------------------------------------|       (This is the "...At the Crack of Dawn..." part)
D---------------------------------------------|
A-------------------5-7-------------------7-5-|
E-7-7-7-7-7-7-7-7-7-----7-7-7-7-7-7-7-7-7-----|


Chorus
G-----------------------------------------------------------------------------------------------|
D-----------------------------------------------------------------------------------------------|
A-7-7---7-7---7-7---5-6---7-7---7-7---7-7---5-6---7-7---7-7---7-7---5-6---7-7---7-7---7-7---5-6-|
E-----------------------------------------------------------------------------------------------|

 
Verse                                       x4
G---------------------------------------------|
D---------------------------------------------|
A-------------------5-7-------------------7-5-|
E-7-7-7-7-7-7-7-7-7-----7-7-7-7-7-7-7-7-7-----|


Chorus
G-----------------------------------------------------------------------------------------------|------|
D-----------------------------------------------------------------------------------------------|------|
A-7-7---7-7---7-7---5-6---7-7---7-7---7-7---5-6---7-7---7-7---7-7---5-6---7-7---7-7---7-7---5-6-|-7----|
E-----------------------------------------------------------------------------------------------|------|



**************************************************************************************************************

13. Up All Night


Verse
G-------------------------------------------------------------------------------------------------|
D-------------------------------------------------------------------------------------------------|
A-0-0-0---5-3-0---0-0-0---5-3-0---0-0-0---5-3-0---0-0-0---5-3-0---0-0-0---5-3-0---0-0-0---5-3-0---|
E-------------------------------------------------------------------------------------------------|


Chorus ("Up All Night...")
G---------------------------------|---------------------------------------------|
D---------------------------------|---------------------------------------------|
A-5-3-0---5-3-0---5-3-0---5-3-0---|---------------------------------------------|
E---------------------------------|-3-3-3-3-3-3-3-3-3/15---3-3-3-3-3-3-3-3/15---|


Listen for order


**************************************************************************************************************

14. N.C. Royalty


Intro                                          x2
G------------------------------------------------|
D----------------------------------------------7-|
A----------------------------------------------5-|
E-5/7-7--5/7-7--5/7-7--5---5/7-7--5/7-7--5/7-7---|


Verse                                                                           x2
G---------------------------------------------------------------------------------|
D---------------------------------------------------------------------------------|
A-------------------------------7-5-3-1-3-------------------------------7-5-3-1-3-|
E-5/7-7-7-7-5/7-7-7-7-5/7-7-7-7-----------5/7-7-7-7-5/7-7-7-7-5/7-7-7-7-----------|


Chorus                                         x2
G------------------------------------------------|
D----------------------------------------------7-|
A----------------------------------------------5-|
E-5/7-7--5/7-7--5/7-7--5---5/7-7--5/7-7--5/7-7---|


Verse      
G---------------------------------------------------------------------------------|
D---------------------9-7-9--9----------------------------------------------------|
A-------------------------------7-5-3-1-3-------------------------------7-5-3-1-3-|
E-5/7-7-7-7-5/7-7-7-7---------------------5/7-7-7-7-5/7-7-7-7-5/7-7-7-7-----------|
    
                                                              
G---------------------------------------------------------------------------------|
D---------------------------------------------------------------------------------|
A-------------------------------7-5-3-1-3-------------------------------7-5-3-1-3-|
E-5/7-7-7-7-5/7-7-7-7-5/7-7-7-7-----------5/7-7-7-7-5/7-7-7-7-5/7-7-7-7-----------|


Chorus                                         x2
G------------------------------------------------|
D----------------------------------------------7-|
A----------------------------------------------5-|
E-5/7-7--5/7-7--5/7-7--5---5/7-7--5/7-7--5/7-7---|


Verse      
G---------------------------------------------------------------------------------|
D---------------------9-7-9--9----------------------------------------------------|
A-------------------------------7-5-3-1-3-------------------------------7-5-3-1-3-|
E-5/7-7-7-7-5/7-7-7-7---------------------5/7-7-7-7-5/7-7-7-7-5/7-7-7-7-----------|
    
                                                              
G---------------------------------------------------------------------------------|
D---------------------------------------------------------------------------------|
A-------------------------------7-5-3-1-3-------------------------------7-5-3-1-3-|
E-5/7-7-7-7-5/7-7-7-7-5/7-7-7-7-----------5/7-7-7-7-5/7-7-7-7-5/7-7-7-7-----------|


Chorus                                         x2
G------------------------------------------------|
D----------------------------------------------7-|
A----------------------------------------------5-|
E-5/7-7--5/7-7--5/7-7--5---5/7-7--5/7-7--5/7-7---|


**************************************************************************************************************

15. Hammerhead 

Intro
G------------------------|------------------------|------------------------|------------------------|
D------------------------|------------------------|------------------------|------------------------|
A----5--7(Hold)-------7*-|----7--5(Hold)-------5*-|----5--7(Hold)-------7*-|----7--5(Hold)-------5*-|
E-7----------------------|-7----------------------|-7----------------------|-7----------------------|

Verse
G-----------------------------------------------------------|
D-----------------------------------------------------------|
A----------------------5-5-7-7----------------------7-7-5-5-|
E-7-7--5-7-7--5-7-7--5---------7-7--5-7-7--5-7-7--5---------|


Chorus
G-----------------------------------------------|
D-----------------------------------------------|
A---------5-7--------7-5--------5-7---------7-5-|
E-7-7-7-7----7-7-7-7-----7-7-7-7----7-7-7-7-----|

**************************************************************************************************************

16. Destructo Rock


Verse
G-----------------------------------------------------------------|
D-----------------------------------------------------------------|
A-----------------5-5-5-5-5-5-5-5---------------------------------|
E-5-5-5-5-5-5-5-5-----------------5-5-5-5-5-5-5-5-3-3-3-3-3-3-3-3-|


Chorus                    x4
G---------------------------|
D---------------------------|
A------------------5--3-----|
E-5-5-5-5-5-5-5-5--------3--|


Order: 
Intro (first bar is guitar only) 
Verse  x3
Chorus x4
Verse  x3
Chorus x4

The Outro is just 
G--------------------------------------------------------------------------------------------------------|
D--------------------------------------------------------------------------------------------------------|
A--------------------------------------------------------------------------------------------------------|
E-3-3-3-3-3-3-3-3-3-3-3-3-3-3-3-3-3-3----5-5-5-5-5-5-5-5-5-5-5-5-5-5-5-5-5-5-5-5-5-5-5---5---5---5---5---|

            
            
Suggest correction
Creating personal tab
Creating personal tab
You can edit any tab online and save it as your Personal.

You can edit, replace or remove any tab part or add personal notes – all changes will be seen only by you.

Personal tabs can be accessed anytime from any device, even offline.
Learn more »
Give kudos to tab author, rate the tab!
1 2 3 4 5
comments
print report bad tab
guest
You may want to rate the tab now too:
select rating
Wanna post a correction for this tab? Suggest correction