Oops, an error
Loading. Please wait.

Le Nouveau Vocabulaire Tab

19 views 1 this week
no commentswrite comment
1 2 3 4 5
3 more votes to show rating
add to favorites
launch autoscroll
font size
0
reset
how to read this tab
guitar tuner
Autoscroll
slow
fast
+/-
esc
set tempo
stop
Help us to improve Ultimate-Guitar.com Take our survey!
×
Author
Difficulty
intermediate
--------------------------------------------------------------------------------------------------------------
                               Le nouveau vocabulaire - Antoine Corriveau
--------------------------------------------------------------------------------------------------------------

[Intro]

e|-------------------------|-------------------------|-------------------------|-------------------------|
B|-----7-----7-----7-----7-|-----7-----7-----7-----0-|-----0-----0-----0-----0-|-----0-----0-----0-----0-|
G|---7-----7-----7-----6---|---6-----6-----6-----6---|---4-----4-----4-----4---|---4-----4-----4-----0---|
D|-0-----0-----0-----0-----|-7-----7-----7-----7-----|-5-----5-----5-----5-----|-5-----5-----5-----4-----|
A|-------------------------|-------------------------|-------------------------|-------------------------|
E|-------------------------|-------------------------|-------------------------|-------------------------|

e|-----------0-----0-----0-|-----------0-------------|-----------0-----------0-|-------------------------|
B|-----0-------------------|-----3-----------3-----3p|-2---2-----------2-------|-----2-----2-----2-----3/|
G|---0-----0-----0-----0---|---0-----0-----0-----0---|---0-----0-----0-----0---|---0-----0-----0-----2---|
D|-2-----2-----2-----2-----|-2-----2-----2-----2-----|-2-----2-----2-----2-----|-2-----2-----2-----0-----|
A|-------------------------|-------------------------|-------------------------|-------------------------|
E|-------------------------|-------------------------|-------------------------|-------------------------|


[Chorus]

e|-------------------------|-------------------------|-------------------------|-------------------------|
B|-7---7-----7-----7-----7-|-----7-----7-----7-----0-|-----0-----0-----0-----0-|-----0-----0-----0-----0-|
G|---7-----7-----7-----7---|---6-----6-----6-----6---|---4-----4-----4-----4---|---4-----4-----4-----0---|
D|-0-----0-----0-----0-----|-7-----7-----7-----7-----|-5-----5-----5-----5-----|-5-----5-----5-----4-----|
A|-------------------------|-------------------------|-------------------------|-------------------------|
E|-------------------------|-------------------------|-------------------------|-------------------------|
  Brisés de bord en bord    du dos jusqu'au ventre,   les os sur l'asphalte     et le cœur dans la fente

e|-----------0-----0-------|-----0-------------------|-----------------0-------|-------------------------|
B|-----0-----------------3-|-----------3-----3-----2-|-----2-----2-----------2-|-----2-----2-----2-----2/|
G|---0-----0-----0-----0---|---0-----0-----0-----0---|---0-----0-----0-----0---|---0-----0-----0-----0---|
D|-2-----2-----2-----2-----|-2-----2-----2-----2-----|-2-----2-----2-----2-----|-2-----2-----2-----0-----|
A|-------------------------|-------------------------|-------------------------|-------------------------|
E|-------------------------|-------------------------|-------------------------|-------------------------|
  Nous nous sommes arrêtés  sous le poids des massues, nous nous sommes étendus 

e|-------------------------|-------------------------|-------------------------|-------------------------|
B|-7---7-----7-----7-----7-|-----7-----7-----7-----0-|-----0-----0-----0-----0-|-----0-----0-----0-----0-|
G|---7-----7-----7-----7---|---6-----6-----6-----6---|---4-----4-----4-----4---|---4-----4-----4-----0---|
D|-0-----0-----0-----0-----|-7-----7-----7-----7-----|-5-----5-----5-----5-----|-5-----5-----5-----4-----|
A|-------------------------|-------------------------|-------------------------|-------------------------|
E|-------------------------|-------------------------|-------------------------|-------------------------|
  Et pendant qu'on tombaient lentement et devant,     tout ça n'achèverait pas  et ça durerait longtemps 

e|-----------0-----0-------|-------------------------|-----------0-------------|-------------------------|
B|-----0-----------------3-|-----3-----3-----3-----2-|-----2-----------2-----2-|-----2-----2-----2-----3/|
G|---0-----0-----0-----0---|---0-----0-----0-----0---|---0-----0-----0-----0---|---0-----0-----0-----2---|
D|-2-----2-----2-----2-----|-2-----2-----2-----2-----|-2-----2-----2-----2-----|-2-----2-----2-----0-----|
A|-------------------------|-------------------------|-------------------------|-------------------------|
E|-------------------------|-------------------------|-------------------------|-------------------------|
  Et plus on tomberaient    et plus vite ça irait,    mais le fracas et le bruit n'arrêteront plus jamais 

e|-------------------------|-------------------------|-------------------------|-------------------------|
B|-7---7-----7-----7-----7-|-----7-----7-----7-----0-|-----0-----0-----0-----0-|-----0-----0-----0-----0-|
G|---7-----7-----7-----7---|---6-----6-----6-----6---|---4-----4-----4-----4---|---4-----4-----4-----0---|
D|-0-----0-----0-----0-----|-7-----7-----7-----7-----|-5-----5-----5-----5-----|-5-----5-----5-----4-----|
A|-------------------------|-------------------------|-------------------------|-------------------------|
E|-------------------------|-------------------------|-------------------------|-------------------------|
Et sous les globes éteints et dans les portes ouvertes, nous serons maintenant seuls à tirer la couverte 

e|-----------0-----0-------|-----0-----------0-------|-----0-------------------|-------------------------|
B|-----0-----------------3-|-----------3-----------2-|-----2-----2-----2-----2-|-----2-----2-----2-----3/|
G|---0-----0-----0-----0---|---0-----0-----0-----0---|---0-----0-----0-----0---|---0-----0-----0-----2---|
D|-2-----2-----2-----2-----|-2-----2-----2-----2-----|-2-----2-----2-----2-----|-2-----2-----2-----0-----|
A|-------------------------|-------------------------|-------------------------|-------------------------|
E|-------------------------|-------------------------|-------------------------|-------------------------|
  Il était déjà tôt,        il faisait déjà clair     Nous apprendrons          le nouveau vocabulaire

e|-------------------------|-------------------------|-------------------------|-------------------------|
B|-7---7-----7-----7-----7-|-----7-----7-----7-----0-|-----0-----0-----0-----0-|-----0-----0-----0-----0-|
G|---7-----7-----7-----7---|---6-----6-----6-----6---|---4-----4-----4-----4---|---4-----4-----4-----0---|
D|-0-----0-----0-----0-----|-7-----7-----7-----7-----|-5-----5-----5-----5-----|-5-----5-----5-----4-----|
A|-------------------------|-------------------------|-------------------------|-------------------------|
E|-------------------------|-------------------------|-------------------------|-------------------------|
  Ce sera l'amélioré,       celui de la réforme,      qui s'est plié au trou    dont il a pris la forme

e|-----------0-----0-------|-----0-------------------|-----------0-----------0-|-----------0-----0-------|
B|-----0-----------------3-|-----------3-----3-----2-|-----2-----------2-------|-----2-------------3---2/|
G|---0-----0-----0-----0---|---0-----0-----0-----0---|---0-----0-----0-----0---|---0-----0-----0-----0---|
D|-2-----2-----2-----2-----|-2-----2-----2-----2-----|-2-----2-----2-----2-----|-2-----2-----2-----0-----|
A|-------------------------|-------------------------|-------------------------|-------------------------|
E|-------------------------|-------------------------|-------------------------|-------------------------|
  Et les jours qui se lèvent debout comme des maisons seront jetés par terre    comme les belles raisons 

e|-------------------------|-------------------------|-------------------------|-------------------------|
B|-7---7-----7-----7-----7-|-----7-----7-----7-----0-|-----0-----0-----0-----0-|-----0-----0-----0-----0-|
G|---7-----7-----7-----7---|---6-----6-----6-----6---|---4-----4-----4-----4---|---4-----4-----4-----0---|
D|-0-----0-----0-----0-----|-7-----7-----7-----7-----|-5-----5-----5-----5-----|-5-----5-----5-----4-----|
A|-------------------------|-------------------------|-------------------------|-------------------------|
E|-------------------------|-------------------------|-------------------------|-------------------------|
  Seront jetés par terre,   un peu comme plusieurs    avaient démoli l'envie    de chercher meilleur 

e|-----------0-----0-------|-----------0-------------|-----------0-----------0-|-------------------------|
B|-----0-----------------3-|-----3-----------3-----2-|-----2-----------2-------|-----2-----2-----2-----3/|
G|---0-----0-----0-----0---|---0-----0-----0-----0---|---0-----0-----0-----0---|---0-----0-----0-----2---|
D|-2-----2-----2-----2-----|-2-----2-----2-----2-----|-2-----2-----2-----2-----|-2-----2-----2-----0-----|
A|-------------------------|-------------------------|-------------------------|-------------------------|
E|-------------------------|-------------------------|-------------------------|-------------------------|
  Chercher à revenir        sans se faire de secret,  revenir uniquement        pour jouer dans la plaie

e|-------------------------|-------------------------|-------------------------|-------------------------|
B|-7---7-----7-----7-----7-|-----7-----7-----7-----0-|-----0-----0-----0-----0-|-----0-----0-----0-----0-|
G|---7-----7-----7-----7---|---6-----6-----6-----6---|---4-----4-----4-----4---|---4-----4-----4-----0---|
D|-0-----0-----0-----0-----|-7-----7-----7-----7-----|-5-----5-----5-----5-----|-5-----5-----5-----4-----|
A|-------------------------|-------------------------|-------------------------|-------------------------|
E|-------------------------|-------------------------|-------------------------|-------------------------|
  Nous connaissions par cœur notre destination,       mais la marche serait trop longue de toute façon 

e|-----------0-----0-------|-----0-----------0-------|-------------------------|-------------------------|
B|-----0-----------------3-|-----------3-----------2-|-----2-----2-----2-----2-|-------------------------|
G|---0-----0-----0-----0---|---0-----0-----0-----0---|---0-----0-----0-----0---|-------------------------|
D|-2-----2-----2-----2-----|-2-----2-----2-----2-----|-2-----2-----2-----2-----|-------------------------|
A|-------------------------|-------------------------|-------------------------|-------------------------|
E|-------------------------|-------------------------|-------------------------|-------------------------|
Quand vos ombres s'allongeront au dessus de nous,     nous serons des éponges qui garderont tout de vous


[Outro]

e|-------------------------|-----------------------7-|-----7-----7h8---8p7-----|-------------------------|
B|-----3-----3/5---5-----5/|-7---7-----7/8---8-------|-----------------------8\|-7---7-----7\5---5/7---8\|
G|---2-----2-----3-----3---|---5-----5-----7-----7---|---7-----7-----7-----7---|---5-----5-----3-----5---|
D|-0-----0-----0-----0-----|-0-----0-----0-----0-----|-0-----0-----0-----0-----|-0-----0-----0-----0-----|
A|-------------------------|-------------------------|-------------------------|-------------------------|
E|-------------------------|-------------------------|-------------------------|-------------------------|

e|-------------------------|-----2-----2p0---0h2---3/|-5---5-----5/8---8\7---5\|-2---2-----2p0---0-----0-|
B|-7---7-----7\5---5-----5\|-3-----------------------|-------------------------|-------------------------|
G|---5-----5-----3-----3---|---2-----2-----2-----2---|---3-----3-----0-----0---|---2-----2-----2-----2---|
D|-0-----0-----0-----0-----|-0-----0-----0-----0-----|-0-----0-----0-----0-----|-0-----0-----0-----0-----|
A|-------------------------|-------------------------|-------------------------|-------------------------|
E|-------------------------|-------------------------|-------------------------|-------------------------|

e|-------------------------|-------------------------|-------------------------|-------------------------|
B|-----3-----3p2---2-----2h|-3---3-----3p2---2-----2h|-3---3-----3-----3-----3/|-7---7-----7-----7-----7-|
G|---2-----2-----2-----2---|---2-----2-----2-----2---|---2-----2-----2-----2---|---7-----7-----7-----7---|
D|-0-----0-----0-----0-----|-0-----0-----0-----0-----|-0-----0-----0-----0-----|-0-----0-----0-----0-----|
A|-------------------------|-------------------------|-------------------------|-------------------------|
E|-------------------------|-------------------------|-------------------------|-------------------------|

e|-------------------------|-------5-----------------|
B|-----7-----7-----7-----7-|-----7-------------------|
G|---6-----6-----6-----6---|---7---------------------|
D|-0-----0-----0-----0-----|-0-----------------------|
A|-------------------------|-------------------------|
E|-------------------------|-------------------------|



***********************************

| h   Hammer-on
| p   Pull-off
| /   Slide up
| \   Slide down

************************************
Suggest correction
Give kudos to tab author, rate the tab!
1 2 3 4 5
comments
print report bad tab
guest
You may want to rate the tab now too:
select rating
Wanna post a correction for this tab? Suggest correction