Oops, an error
Loading. Please wait.

Chega De Saudade Tab

version 1
version 1

Whole song

Interactive

5,922 views 24 this week
no commentswrite comment
1 2 3 4 5
please rate
add to favorites
launch autoscroll
font size
0
reset
how to read this tab
guitar tuner
Autoscroll
slow
fast
+/-
esc
set tempo
stop
Help us to improve Ultimate-Guitar.com Take our survey!
×
Author
Difficulty
advanced
                               CHEGA DE SAUDADE                                 


      Dm7                 Dm7/C                  E7/B            
      E   E   S  E   S    S      E   S E   E     E    E  S E  S  
E||--------------------|----------------------|-------------------|
B||--10--10-----10--10-|--------10--10----10--|--5----5----5---5--|
G||--10--10-----10--10-|--------10--10----10--|--7----7----7---7--|
D||--10--10-----10--10-|--------10--10----10--|--6----6----6---6--|
A||--------------------|----------------------|-------------------|
E||--10------10--------|--8------------8------|--7-------7--------|


                  Bbm6         A713b                    Dm79         Em75b  
  S E  S E  E     E    E  S E  S        S E  S E  E     E    E  S E  S      
----------------|----------------------|----------------|----------------------|
----5---5----5--|--6----6----6---6-----|----6---6----6--|--5----5----5---8-----|
----7---7----7--|--6----6----6---6-----|----6---6----6--|--5----5----5---7-----|
----6---6----6--|--5----5----5---5-----|----5---5----5--|--3----3----3---8-----|
----------------|----------------------|----------------|--5-------5-----------|
--7-------7-----|--6-------6-----------|--5-------5-----|----------------------|


       A713b           Dm6           Bm75b         E79b          Am6            
  S E  S     E  E      E   E   S  E  S        S E  S    E  E     E   E  S E  S  
-------------------|-----------------------|------------------|------------------|
----8--6--------6--|--10--10-----10--6-----|----6--6-------6--|--5---5----5---5--|
----7--6--------6--|--10--10-----10--7-----|----7--7-------7--|--5---5----5---5--|
----8--5--------5--|---9---9------9--7-----|----7--6-------6--|--4---4----4---4--|
--7----------------|-----------------------|------------7-----|------------------|
-------------5-----|--10------10-----------|--7---------------|--5------5--------|


                  Bb7M         Bb6                    A713b         Edim7  
  S E  S E  E     E    E  S E  S      S E  S E  E     E     E  S E  S      
---------------|-------------------|---------------|----------------------|
----5--5----5--|--6----6----6--6---|----6--6----6--|--6-----6----6--8-----|
----5--5----5--|--7----7----7--7---|----7--7----7--|--6-----6----6--6-----|
----4--4----4--|--7----7----7--5---|----5--5----5--|--5-----5----5--8-----|
---------------|-------------------|---------------|----------------------|
--5------5-----|--6-------6--------|--6------6-----|--5--------5----------|


                   Dm7                 Dm7/C                  E7/B            
  S E  S E  E      E   E   S  E   S    S      E   S E   E     E    E  S E  S  
---------------|--------------------|----------------------|------------------|
----8--8----8--|--10--10-----10--10-|--------10--10----10--|--5----5----5--5--|
----6--6----6--|--10--10-----10--10-|--------10--10----10--|--7----7----7--7--|
----8--8----8--|--10--10-----10--10-|--------10--10----10--|--6----6----6--6--|
--7------7-----|--------------------|----------------------|------------------|
---------------|--10------10--------|--8------------8------|--7-------7-------|


                  Bbm6              A713b               Dm7      Dm79 D79b  
  S E  S E  E     E    E  S E  S    S     E  S E  E     E   E  S E    S     
---------------|------------------|-------------------|---------------------|
----5--5----5--|--6----6----6--6--|--------6--6----6--|--6---6----5----4----|
----7--7----7--|--6----6----6--6--|--------6--6----6--|--5---5----5----5----|
----6--6----6--|--5----5----5--5--|--------5--5----5--|--3---3----3----4----|
---------------|------------------|-------------------|--5------5-----------|
--7------7-----|--6-------6-------|--5----------5-----|---------------------|


       D7          Gm6         A713b                               Dm7/C  
  S E  S  E  E     E   E  S E  S        S E  S E  E     E  E  S E  S      
----------------|--------------------|---------------|-------------------|
----4--3-----3--|--3---3----3--6-----|----6--6----6--|--6--6----6--6-----|
----5--5-----5--|--3---3----3--6-----|----6--6----6--|--5--5----5--5-----|
----4--4-----4--|--2---2----2--5-----|----5--5----5--|--7--7----7--7-----|
--5-------5-----|--------------------|---------------|--5-----5----------|
----------------|--3------3----------|--5------5-----|-------------------|


                  Bdim7         Bbm6         A713b          Dm79         Em7  
  S E  S E  E     E     E  S E  S       S E  S     E  E     E    E  S E  S    
---------------|---------------------|-------------------|-------------------|
----6--6----6--|--6-----6----6--6----|----6--6--------6--|--5----5----5--8---|
----5--5----5--|--7-----7----7--6----|----6--6--------6--|--5----5----5--7---|
----7--7----7--|--6-----6----6--5----|----5--5--------5--|--3----3----3--5---|
---------------|---------------------|-------------------|--5-------5--------|
--8------8-----|--7--------7---------|--6----------5-----|-------------------|


       A713          D7M         B75#/D#                    Em7         Em79  
  S E  S    E  E     E   E  S E  S          S E  S E  E     E   E  S E  S     
------------------|----------------------|---------------|-------------------|
----8--7-------7--|--7---7----7--8-------|----8--8----8--|--8---8----8--7----|
----7--6-------6--|--6---6----6--8-------|----8--8----8--|--7---7----7--7----|
----5--5-------5--|--7---7----7--7-------|----7--7----7--|--5---5----5--5----|
--7---------------|--5------5------------|--6------6-----|--7------7---------|
------------5-----|----------------------|---------------|-------------------|


                  A7sus4 A7                           Ddim7         D7M  
  S E  S E  E     E.     S  S E  S    S E  S E  E     E     E  S E  S    
---------------|--------------------|---------------|--------------------|
----7--7----7--|--5------5----5--5--|----5--5----5--|--6-----6----6--7---|
----7--7----7--|--7------6----6--6--|----6--6----6--|--4-----4----4--6---|
----5--5----5--|--5------5----5--5--|----5--5----5--|--6-----6----6--7---|
--7------7-----|--------------------|---------------|--5--------5--------|
---------------|--5---------5-------|--5------5-----|--------------------|


                  F#m7         Fdim7                    Emadd9            
  S E  S E  E     E    E  S E  S        S E  S E  E     E      E  S E  S  
---------------|---------------------|---------------|--------------------|
----7--7----7--|--2----2----2--0-----|----0--0----0--|--0------0----0--0--|
----6--6----6--|--2----2----2--1-----|----1--1----1--|--0------0----0--0--|
----7--7----7--|--2----2----2--0-----|----0--0----0--|--4------4----4--4--|
--5------5-----|---------------------|---------------|--------------------|
---------------|--2-------2----------|--1------1-----|--0---------0-------|


                  E79                              Gm6         A713b  
  S E  S E  E     E   E  S E  S    S E  S E  E     E   E  S E  S      
---------------|-----------------|---------------|--------------------|
----0--0----0--|--7---7----7--7--|----7--7----7--|--3---3----3--6-----|
----0--0----0--|--7---7----7--7--|----7--7----7--|--3---3----3--6-----|
----4--4----4--|--6---6----6--6--|----6--6----6--|--2---2----2--5-----|
---------------|--7------7-------|--7------7-----|--------------------|
--0------0-----|-----------------|---------------|--3------3----------|


                  D7M         Bm711                    E79            
  S E  S E  E     E   E  S E  S        S E  S E  E     E   E  S E  S  
---------------|--------------------|---------------|-----------------|
----6--6----6--|--7---7----7--5-----|----5--5----5--|--7---7----7--7--|
----6--6----6--|--6---6----6--7-----|----7--7----7--|--7---7----7--7--|
----5--5----5--|--7---7----7--7-----|----7--7----7--|--6---6----6--6--|
---------------|--5------5----------|---------------|--7------7-------|
--5------5-----|--------------------|--7------7-----|-----------------|


                  F#7                              Bm7      Bbm7 Am7  
  S E  S E  E     E   E  S E  S    S E  S E  E     E   E  S E    S    
---------------|----------------|---------------|--------------------|
----7--7----7--|--7---7----7--7-|----7--7----7--|--7---7----6----5---|
----7--7----7--|--9---9----9--9-|----9--9----9--|--7---7----6----5---|
----6--6----6--|--8---8----8--8-|----8--8----8--|--7---7----6----5---|
--7------7-----|--9------9------|--9------9-----|--------------------|
---------------|----------------|---------------|--7------6----------|


       Ab7          G7M         Gm7                    F#m7         B713  
  S E  S   E  E     E   E  S E  S      S E  S E  E     E    E  S E  S     
-----------------|------------------|---------------|---------------4----|
----5--4------4--|--3---3----3--3---|----3--3----3--|--2----2----2--4----|
----5--5------5--|--4---4----4--3---|----3--3----3--|--2----2----2--2----|
----5--4------4--|--4---4----4--3---|----3--3----3--|--2----2----2-------|
-----------------|------------------|---------------|--------------------|
--5--------4-----|--3------3--------|--3------3-----|--2-------2---------|


       B79#5#          E79         A713sus4                  
  S E  S      E  E     E   E  S E  S           S E  S E  E   
----4--3---------3--|-----------------------|---------------|
----4--3---------3--|--7---7----7--7--------|----7--7----7--|
----2--2---------2--|--7---7----7--7--------|----7--7----7--|
--------------------|--6---6----6--5--------|----5--5----5--|
--2-----------2-----|--7------7-------------|---------------|
--------------------|-----------------------|--5------5-----|


  F#m7         B79#5#                    E79         A713sus4                  
  E    E  S E  S         S E  S E  E     E   E  S E  S           S E  S E  E   
---------------3------|----3--3----3--|-----------------------|---------------|
--2----2----2--3------|----3--3----3--|--7---7----7--7--------|----7--7----7--|
--2----2----2--2------|----2--2----2--|--7---7----7--7--------|----7--7----7--|
--2----2----2---------|---------------|--6---6----6--5--------|----5--5----5--|
----------------------|--2------2-----|--7------7-------------|---------------|
--2-------2-----------|---------------|-----------------------|--5------5-----|


  D69         A713b                    
  E   E  S E  S        S E  S E  E     
--------------------|----------------||
--5---5----5--6-----|----6--6----6---||
--4---4----4--6-----|----6--6----6---||
--4---4----4--5-----|----5--5----5---||
--5------5----------|----------------||
--------------------|--5------5------||




Duration Legend
---------------
W - whole
H - half
Q - quarter
E - 8th
S - 16th
T - 32nd
X - 64th
. - note dotted
|-n-|  - n-tuplets


Tablature Legend
----------------
L - tied note
x - dead note
g - grace note
(n) - ghost note
> - accentuded note
NH - natural harmonic
AH - artificial harmonic
TH - tapped harmonic
SH - semi harmonic
PH - pitch harmonic
h - hammer on
p - pull off
b - bend
br - bendRelease
pb - preBend
pbr - preBendRelease
brb - bendReleaseBend
\n/ - tremolo bar dip
\n - tremolo bar dive
-/n - tremolo bar Release up
/n\ - tremolo bar inverted dip
/n - tremolo bar return
-\n - tremolo bar Release down
S - shift slide
s - legato slide
/ -  slide into from below or out of upwards
\ -  slide into from above or out of downwards
~ - vibrato
W - wide vibrato
tr - trill
TP - tremolo picking
T - tapping
S - slap
P - pop
< - fade in
^ - brush up
v - brush down
Suggest correction
What's this?
You can suggest a correction to this tab. Community and Mods will review your correction and vote to approve or reject it.
comments
We did not receive enough feedback on this tab! Please rate:
print report bad tab
1 2 3 4 5
guest
You may want to rate the tab now too:
select rating
Please do not post tabs as comments. Select "correction" instead!