Oops, an error
Loading. Please wait.

Luiza Tab

6,195 views 15 this week
no commentswrite comment
1 2 3 4 5
please rate
add to favorites
launch autoscroll
font size
0
reset
how to read this tab
guitar tuner
Tab Pro tools
  • play this tab
  • loop segment
  • change instrument
  • show fretboard
  • metronome
×
Best way to learn
"Luiza"
Autoscroll
slow
fast
+/-
esc
set tempo
stop
Contributor
Difficulty
intermediate
LUIZA - Antonio Carlos Jobim
Played by: Jacopo Barbato
Guitar tab submitted by: kygolamco
E-mail: kygolamco@gmail.com

Video Link: http://youtube.com/watch?v=IYdCSsJzJck


s-slide
b-bend
p-pull off
h-hammer on

Intro
E|----------------------------------------------------------------|
B|----8---7-------------4-----------------------------------------|
G|------------10---9----4-----------------------------------------|
D|------8---9----9---9--3-----------------------------------------|
A|--10------------------------------------------------------------|
E|----------------------3-----------------------------------------|

E|--1--------1-----1-3-3-1---1------------------------------------|
B|--1-1-4----1-1-4-----1----1-4-4-3-3-4-3-------------------------|
G|----0--0-3-2-2-2-----1---1----4--6--4---------------------------|
D|-------------1-3--------3-----3-----5---------------------------|
A|--3-------------------------------------------------------------|
E|-----------1---------1--------3-----3---------------------------|

E|-----------1-----1-3-3-1----------------------------------------|
B|--6---4----1-1-4-----1--5-6-8-9-9-8---8-9--8--------------------|
G|----3----3-2-2-2-----1--5-6-9---9---11--9-----------------------|
D|----5--5-----1-3----------------8-------10----------------------|
A|--3-------------------------------------------------------------|
E|-----------1---------1----------8-------8-----------------------|

E|-------------6---------3-----------3----------------------------|
B|--11----9----6-6-9-----3-3---3-----3----------------------------|
G|-----8-----8-7-7---5-7-3-3-5---5-4-3----------------------------|
D|-----10--10----6---6---------------5----------------------------|
A|--8--------------------6-----------6----------------------------|
E|-------------6-----6--------------------------------------------|

E|--3-2-3-4-3-1------------4-7-10-10-8----------------------------|
B|--3-------1----6-4-4-3-6-5-6--------8-5-2-----------------------|
G|----------1---5----4---4-3-7----9-------3-----------------------|
D|----------0--6-----3---5-4--------------2-----------------------|
A|---------------------------------7------3-----------------------|
E|-------------------3------------8-8-----------------------------|

E|------------------------6------------3----4--3------------------|
B|--------13-12-11---9----6-6-9-----9--3----4-4--4----------------|
G|--5-4-5s--------8-----8-7-7---5-7--7--3-5-3-3-3--5-5------------|
D|----------------10--10----6---6----6-------------4-4------------|
A|--------------8-------------------5-------3------5--------------|
E|------------------------6-----6---------------------------------|

E|------------7---8-8-7-5-8-7-7-4---------------------------------|
B|--3-3------7-10-10-------------8-4------------------------------|
G|---6-5--7-8-----10----------------4-----------------------------|
D|-----4--7-------0-----------------------------------------------|
A|-----5s-9-------------------4-----------------------------------|
E|----------------------------------------------------------------|

E|----------------1-----1-3-3-1---1-------------------------------|
B|--8-7--6---4----1-1-4-----1----1-4-4-3-3-4-3--------------------|
G|---------3----3-2-2-2-----1---1----4--6--4----------------------|
D|---------5--5-----1-3--------3-----3-----5----------------------|
A|-------3--------------------------------------------------------|
E|----------------1---------1--------3-----3----------------------|

E|-----------1-----1-3-3-1----------------------------------------|
B|--6---4----1-1-4-----1--5-6-8-9-9-8---8-9--8--------------------|
G|----3----3-2-2-2-----1--5-6-9---9---11--9-----------------------|
D|----5--5-----1-3----------------8-------10----------------------|
A|--3-------------------------------------------------------------|
E|-----------1---------1----------8-------8-----------------------|

E|-------------6-----6-8-8-6-6-----------------6-6-4-4------------|
B|--11----9----6-6-9-----6-----9-9-8-8-6-6-5-5---------8-8----1---|
G|-----8-----8-7-7-------6-----------6-6-6-6-6----5------8s-4-1---|
D|-----10--10----6-------6-----------8-5-5---------------6----1---|
A|--8--------------------6-----------6-6--------------------------|
E|-------------6---------------------------------4-------8----1---|

E|--0-1-3-3-4-4------------------------------4-8s10-8-------------|
B|----1-------4-7------6-5-4-3-3-6-4-----3s4-4-9s11-9-9--4-3--1---|
G|----1-------5----5-7-----4--6--4---5-5-5------------10-5--5-3---|
D|------------4------------3-----3---5-5----------------------1---|
A|------------5-----------------------------------------------3---|
E|----1--------------------3-----3---4---------------------4--1---|

E|--------3-1--------------------------------------0---10---------|
B|------1-1--1------4-1-----------------------1---1---------------|
G|--1-3---1---1-0---1---3-1-3-1-0-1-3-3-4-4-4-2--2-----9----------|
D|----------------3-1-------3-------3-3-3-3-3-2-2-----------------|
A|--------------------------3-------5-------4-3-------------------|
E|--------1---------1---------------3---3------------8------------|
comments
We did not receive enough feedback on this tab! Please rate:
print report bad tab
1 2 3 4 5
I want to post or [tab]
guest
You may want to rate the tab now too:
select rating
Please do not post tabs as comments. Select "correction" instead!