Oops, an error
Loading. Please wait.

The Girl From Ipanema Bass Tab

version 1
version 1

Whole song

17,138 views 60 this week
no commentswrite comment
1 2 3 4 5
please rate
add to favorites
launch autoscroll
font size
0
reset
guitar tuner
Tab Pro tools
  • play this tab
  • loop segment
  • change instrument
  • show fretboard
  • metronome
×
Best way to learn
"The Girl From Ipanema"
Autoscroll
slow
fast
+/-
esc
set tempo
stop
Contributor
Four-fourths time. Each - represents a sixteenth note. Each | | defines one measure.
The numbers above the bars count the measures. h above a not means Hammer on. X
represents an eighth rest.

  Intro:
 1                2                3                4
G|----------------|----------------|----------------|----------------|
D|3---------3-----|3---------------|3-----3---------|3-----3---------|
A|----------------|------------3---|------------3---|------------3---|
E|----------------|----------------|----------------|----------------|

 1                2                3                4
G|----------------|----------------|----------------|----------------|
D|3---------3-----|3---------------|3-----3---------|3-----3---------|
A|----------------|------------3---|------------3---|------------3---|
E|----------------|----------------|----------------|----------------|

  Verse:
 5                6                7                8
G|----------------|----------------|0-----0---------|0-----0-----0---|
D|3-----3---------|3-----3-----3---|------------0---|----------------|
A|------------3---|----------------|----------------|----------------|
E|----------------|----------------|----------------|----------------|

 9                10               11               12         h
G|0-----0-----0---|----------------|----------------|--------X-------|
D|----------------|4-----4-----4---|3-----3-----3---|4---4---X-4-----|
A|----------------|----------------|----------------|--------X-------|
E|----------------|----------------|----------------|--------X-------|

 13               14               15               16
G|----------------|----------------|0-----0---------|0-----0-----0---|
D|3-----3---------|3-----3-----3---|------------0---|----------------|
A|------------3---|----------------|----------------|----------------|
E|----------------|----------------|----------------|----------------|

 17               18               19               20
G|0-----0-----0---|----------------|----------------|----------------|
D|----------------|4-----4-----4---|3-----3---------|3-----3-----3---|
A|----------------|----------------|------------3---|----------------|
E|----------------|----------------|----------------|----------------|

 21               22               23               24
G|----------------|------------6---|4-----4---------|4-----4-----4---|
D|4-----4---------|4-----4---------|------------4---|----------------|
A|------------4---|----------------|----------------|----------------|
E|----------------|----------------|----------------|----------------|

 25               26               27               28
G|----------------|----------------|------------2---|--------2---1---|
D|4-----4---------|4-----4-----2---|0-----0---------|0---------------|
A|------------3---|----------------|----------------|----------------|
E|----------------|----------------|----------------|----------------|

 29               30               31               32
G|0-----0-----0---|----------------|------------1---|------------4-1-|
D|----------------|3-----3-----3---|1-----1---------|1-------1-------|
A|----------------|----------------|----------------|----------------|
E|----------------|----------------|----------------|----------------|

 33               34               35               36
G|2-----------2---|--------7-------|0-----------0---|------5-----5---|
D|----------------|0-----------4---|----------------|----------------|
A|----------------|----------------|----------------|3---------------|
E|----------------|----------------|----------------|----------------|

 37               38               39               40
G|----------------|----------------|0-----0---------|0-----0---------|
D|3-----3---------|3-----3-----3---|------------0---|------------0---|
A|------------3---|----------------|----------------|----------------|
E|----------------|----------------|----------------|----------------|

 41               42               43               44
G|0-----0-----0---|----------------|----------------|----------------|
D|----------------|4-----4-----4---|3-----3-----3---|4-----4-----4---|
A|----------------|----------------|----------------|----------------|
E|----------------|----------------|----------------|----------------|

 45               46               47               48
G|----------------|----------------|0-----0---------|0-----0---------|
D|4-----4---------|4-----4-----4---|------------0---|------------0---|
A|------------3---|----------------|----------------|----------------|
E|----------------|----------------|----------------|----------------|

 49               50               51               52         h
G|0-----0-----0---|----------------|----------------|--------X-------|
D|----------------|4-----4-----4---|3-----3-----3---|4---4---X-4-----|
A|----------------|----------------|----------------|--------X-------|
E|----------------|----------------|----------------|--------X-------|

 53               54               55               56
G|----------------|----------------|0-----0---------|0-----0---------|
D|4-----4---------|4-----4-----4---|------------0---|------------0---|
A|------------3---|----------------|----------------|----------------|
E|----------------|----------------|----------------|----------------|

 57               58               59               60
G|0-----0-----0---|----------------|----------------|----------------|
D|----------------|4-----4-----4---|3-----3---------|3-----3-----3---|
A|----------------|----------------|------------3---|----------------|
E|----------------|----------------|----------------|----------------|

Repeat 21-43 and skip to 61

 61               62               63               64
G|----------------|----------------|----------------|----------------|
D|4-----4-----4---|3-----3-----3---|3-----4-----4---|3-----3-----3---|
A|----------------|----------------|----------------|----------------|
E|----------------|----------------|----------------|----------------|

 65               66               67               68
G|----------------|----------------|----------------|----------------|
D|3-----4-----4---|3-----3-----3---|3-----4-----4---|3-----3-----3---|
A|----------------|----------------|----------------|----------------|
E|----------------|----------------|----------------|----------------|

 69               70               71
G|----------------|----------------|----------------|
D|3-------4-------|3-----3---------|3---------------|
A|----------------|------------3---|----------------|
E|----------------|----------------|------------2---|

This is just the bass...the six-string is played with chords...those are in my other tab.
comments
We did not receive enough feedback on this tab! Please rate:
print report bad tab
1 2 3 4 5
I want to post or [tab]
guest
You may want to rate the tab now too:
select rating
Please do not post tabs as comments. Select "correction" instead!