Oops, an error
Loading. Please wait.

The Girl From Ipanema Tab

version 1
version 1
44,675 views 45 this week
3 commentsread comments
1 2 3 4 5
excellent!
x 6
add to favorites
launch autoscroll
font size
0
reset
how to read this tab
guitar tuner
Tab Pro tools
  • play this tab
  • loop segment
  • change instrument
  • show fretboard
  • metronome
×
Best way to learn
"The Girl From Ipanema"
Autoscroll
slow
fast
+/-
esc
set tempo
stop
Contributor
#----------------------------------PLEASE NOTE---------------------------------#
#This file is the author's own work and represents their interpretation of the #
#song. You may only use this file for private study, scholarship, or research. #
#------------------------------------------------------------------------------#

                              THE GIRL FROM IPANEMA
                               Antonio Carlos Jobim
                      



 Intro
   
  
e|-0----0-0-0---0-|-(0)-0---0-0--0--|-0----0-0-0---0-|-(0)-0---0-0--0--||
B|----------------|-----------------|----------------|-----------------||
G|-2----2-2-2--/3-|-(3)-3---3-3--3--|-2----2-2-2--/3-|-(3)-3---3-3--3--||
D|----------------|-----------------|----------------|-----------------||
A|----------------|-----------------|----------------|-----------------||
E|-1----1-1-1---2-|-(2)-2---2-2--2--|-1----1-1-1---2-|-(2)-2---2-2--2--||
 


 Verse
   
|--3----0-0-----3-|-(3)--0-0-(0)-0---3-|-(3)--0--0-----3-|-(3)-3-0-0-(0)-0---1-|
|-------------3---|----------------3---|-------------3---|-----------------3---|
|-\2------2-----2-|-(2)----2-(2)-----4-|-(4)-----4-----4-|-(4)-----4-(4)-----3-|
|-----------------|--------------------|---------3-------|---------3-(3)-------|
|-----------------|--------------------|-----------------|---------------------|
|-\1------1-----1-|-(1)----1-(1)-----2-|-(2)-----3-----3-|-(3)-----3-(3)-----3-|
   


  
|-(1)--------------0-|-(0)---------------|------------------|------------------|
|-----3--3-(3)-3-1---|-----1--1-(1)-1----|-----1---(1)------|-----1---(1)------|
|-(3)----3-(3)-----3-|-(3)------------3--|-------2-(2)------|------------------|
|--------3-(3)-------|--------2--2-------|---2---------2----|-------2-(2)------|
|------------------4-|-(4)---------------|------------------|---4---------4----|
|-(3)----3-(3)-----2-|-(2)----2-(2)------|-1-------------1--|-2-------------2--|
 


  
|-3----0-0-----3-|-(3)--0-0-(0)-0---3-|-(3)--0--0-----3-|-(3)-3-0-0-(0)-0---1-|
|------------3---|----------------3---|-------------3---|-----------------3---|
|-2------2-----2-|-(2)----2-(2)-----4-|-(4)-----4-----4-|-(4)-----4-(4)-----3-|
|----------------|--------------------|---------3-------|---------3-(3)-------|
|----------------|--------------------|-----------------|---------------------|
|-1------1-----1-|-(1)----1-(1)-----3-|-(3)-----3-----3-|-(3)-----3-(3)-----3-|
 


  
|-(1)--------------0-|-(0)---------------|
|-----3--3-(3)-3-1---|-----1--1-(1)-1----|
|-(3)----3-(3)-----3-|-(3)------------3--|
|--------3-(3)-------|--------2--2-------|
|------------------4-|-(4)---------------|
|-(3)----3-(3)-----2-|-(2)----2-(2)------|
 


 
|------------------|-------------------|
|-----1---(1)------|-----------------5-|
|-------2-(2)------|-------------2S5---|
|---2---------2----|---------2h3-------|
|------------------|-----0-3-----------|
|-1-------------1--|-(1)---------------|
 


 Bridge
               
|-----------------|-----2---1---1----|
|-6---------------|-(6)-------4---4--|
|---6---6-(6)---6-|-(6)--------------|
|---4---4-(4)---4-|-(4)--------------|
|---6---6-(6)---6-|-(6)--------------|
|-----------------|------------------|
 


 
|--------------------|---------------------|
|-2------4-(4)-------|-(4)---------------7-|
|------2-------2---2-|-(2)-----------6-8---|
|----4---------4---4-|-(4)---------7-------|
|-1------------1---1-|-(1)---/6-10---------|
|--------------------|---------------------|
  

  
|-------------------|-----5---4-2-4-2--|
|-(7)---------------|-(7)--------------|
|-----9---9-(9)---9-|-(9)--------------|
|-----7---7-(7)---7-|-(7)--------------|
|-----9---9-(9)---9-|-(9)--------------|
|-------------------|------------------|
  


  
|--------------------|-----------------------|
|-5------7-(7)-------|-(7)--------------7-10-|
|------5-------5---5-|-(5)------------9------|
|----7---------7---7-|-(7)-------7-10--------|
|-5------------5---5-|-(5)---7h9-------------|
|--------------------|-----------------------|
  


                           
  
|-----------------------|------------------------|
|-(10)------------------|-(10)-/11---10-8-10\-8--|
|------10--10-(10)---10-|-(10)-------------------|
|-------8---8--(8)----8-|--(8)-------------------|
|------10--10-(10)---10-|-(10)-------------------|
|-----------------------|------------------------|
    
                             
 
|--------------------|-------------5-6--|
|-6------8-(8)-------|-(8)-----6-8------|
|------5-------5---5-|-(5)--------------|
|----7---------7---7-|-(7)--------------|
|-5------------5---5-|-(5)--------------|
|--------------------|------------------|
  
  
  
|-8------------|-4-------------5--|-6------------|-2----------------||
|-5---3-5-6-8--|----4---4-(4)-----|-3-----3-5-6--|----2---2-(2)-----||
|-5-5----------|----5---5-(5)-----|-3-3-5--------|----3---3-(3)--3--||
|--------------|----0---0-(0)-----|--------------|------------------||
|-0------------|------------------|-0------------|----3---3-(3)--3--||
|--------------|------------------|--------------|------------------||
  


 Verse
  
|-3----0-0-----3-|-(3)--0-0-(0)-0---3-|-(3)--0--0-----3-|-(3)-3-0-0-(0)-0---5-|
|------------3---|----------------3---|-------------3---|-----------------3---|
|-2------2-----2-|-(2)----2-(2)-----4-|-(4)-----4-----4-|-(4)-----4-(4)-----3-|
|----------------|--------------------|---------3-------|---------3-(3)-------|
|----------------|--------------------|-----------------|---------------------|
|-1------1-----1-|-(1)----1-(1)-----2-|-(2)-----3-----3-|-(3)-----3-(3)-----3-|
  

                                                         
  
|-(5)--------------8-|-(8)-0--0-0--0----|--0-------------|--------0-0-0----|
|---------6-6--6-3---|-----2---------3--|----------------|--------------3--|
|-(3)-3-----3--------|----------3/------|-\2----2-2-2--3-|-(3)------3------|
|-----------3--------|-----4------------|----------------|-----------------|
|--------------------|------------------|----------------|-----------------|
|-(3)-3-----3--------|----------2/------|-\1----1-1-1--2-|-(2)------2------|
 

                                    Outro
                         
 
|-0-------------|--------0-0-0----||-0----0-0-0--0-|-(0)-0---0-0--0--|
|---------------|--------------3--||---------------|-----------------|
|-2----2-2-2--3-|-(3)------3------||-2----2-2-2--3-|-(3)-3---3-3--3--|
|---------------|-----------------||---------------|-----------------|
|---------------|-----------------||-3----3-3-3--4-|-(4)-4---4-4--4--|
|-1----1-1-1--2-|-(2)------2------||-1----1-1-1--2-|-(2)-2---2-2--2--|
  
  

|-0----0-0-0--0-|-(0)-0---0-0--0--|-0---------|-0----*|
|---------------|-----------------|------3----|------*|
|-2----2-2-2--3-|-(3)-3---3-3--3--|-2---------|-2----*|
|---------------|-----------------|-----------|------*|
|-3----3-3-3--4-|-(4)-4---4-4--4--|-3---------|-3----*|
|-1----1-1-1--2-|-(2)-2---2-2--2--|-1---------|-1----*|
comments
print report bad tab
3 comments total.
-1 reply
neilcampbell3 wrote on May 23 2007, 05:09 pm

very confusing

+1 reply
coquet wrote on December 5 2007, 06:36 pm

Very, very awesome.

0 reply
JimBonJovi wrote on March 28 2011, 10:16 am

Not confusing at all. Superb tab.

I want to post or [tab]
guest
You may want to rate the tab now too:
select rating
Please do not post tabs as comments. Select "correction" instead!