Oops, an error
Loading. Please wait.

Trust Me Tab

7 views 1 this week
no commentswrite comment
1 2 3 4 5
3 more votes to show rating
add to favorites
launch autoscroll
font size
0
reset
how to read this tab
guitar tuner
Autoscroll
slow
fast
+/-
esc
set tempo
stop
Help us to improve Ultimate-Guitar.com Take our survey!
×
Author
Difficulty
novice
    1:40               2:07                  2:34                   2:54
e|--3--2-----3--2----3-7-2-----------------0-------0--------0-------0--------|
B|--5--3-----5--3----5---3-----------------8--7----8 ---7---8----7--8--------|
G|---------------------------------0-------------------------------------7--9|
D|-----------2--0-4--2---0------2----4---------------------------------------|
A|--------------------------4----------4--5----------------------------------|
E|--------------------------5------------------------------------------------|
            3:08                                                         (End)
e|----------------------------------------5-3--------------------------------|
B|-------------------------------------0-----0--0--3---2---------------------|
G|------7-6------------------------------------------------------------------|
D|----------------5---4--5----7-4-2-----------------------5--4---2-----------|
A|---------------------------------------------------------------------------|
E|---------------------------------------------------------------------------|


Suggest correction
Give kudos to tab author, rate the tab!
1 2 3 4 5
comments
print report bad tab
guest
You may want to rate the tab now too:
select rating
Wanna post a correction for this tab? Suggest correction