Oops, an error
Loading. Please wait.

Lambreta Tab

version 1
version 1

Whole song

Interactive

2,586 views 6 this week
no commentswrite comment
1 2 3 4 5
please rate
add to favorites
launch autoscroll
font size
0
reset
how to read this tab
guitar tuner
Autoscroll
slow
fast
+/-
esc
set tempo
stop
Help us to improve Ultimate-Guitar.com Take our survey!
×
Author
Difficulty
intermediate
António Zambujo - Lambreta
http://www.antoniozambujo.com

youtube link: http://youtu.be/tS4rV1EcPqc
Tabbed by: LSP
letra from: http://letras.terra.com/antonio-zambujo/lambreta/

Bm7  -2-230
?    0--100
A    -02220
Edim -12020
B7   -21202

    Vem dar uma voltinha na minha lambreta
E|----------------------------------2---|
B|-2--------------------------------5---|
G|-4--------------------------------2---|
D|-3--------------------------------2---|
A|-4--------------------------------4---|
E|----------------------------------2---|

E|------0--------0------0-------0--------0--------0------0-------0------2--------0------0-|
B|------3--------0------2-------2--------3--------0------2-------2------0--------0------2-|
G|----2-------1---------2-------0-----2-------1---------2-------0-------2-----1---------2-|
D|-------------------2-------2-----------------------2-------2-------1---------------2----|
A|--2--------------0-------1-------2---------------0-------1-------2---------------0------|
E|---------0-------------------------------0-------------------------------0--------------|


Deixa de pensar no tal Vilela
Que tem carro e barco à vela
O pai tem a mãe também
Que é tão tão
Sempre a preceito
Cá para mim no meu conceito
Se é tão tão e tem tem tem
Tem de ter algum defeito

Vem dar uma voltinha na minha lambreta
Vê só como é bonita
É vaidosa , a rodinha mais vistosa
Deixa um rasto de cometa
É baixinha mas depois
Parece feita para dois
Sem falar nos eteceteras
Que fazem de nós heróis

Eu sei que tenho estilo gingão
Volta e meia vai ao chão
Quando faz de cavalinho
Mas depois passa-lhe a dor,
Endireita o guiador
E regressa de beicinho
Para o pé do seu amor

Vem dar uma voltinha na minha lambreta
Eu juro que eu guio devagarinho
Tu só tens de estar juntinho
Por razões de segurança
E se a estrada nos levar
Noite fora até mar
Páro na beira da esperança
Com a luzinha a alumiar

E deixar de pensar no tal Vilela
Em que tem carro e barco à vela
O pai tem a mãe também
Que é tão tão
Sempre a preceito
Cá para mim no meu conceito
Se é tão tão e tem tem tem,
Tem que ter algum defeito
Se é tão tão e tem tem tem,
Tem que ter algum defeito
Se é tão tão e tem tem tem,
Tem que ter algum defeito ...
Suggest correction
Give kudos to tab author, rate the tab!
1 2 3 4 5
comments
print report bad tab
guest
You may want to rate the tab now too:
select rating
Wanna post a correction for this tab? Suggest correction