Oops, an error
Loading. Please wait.

Suasana Di Hari Raya Tab

version 1
version 1

Whole song

Interactive

11,678 views 1 this week
no commentswrite comment
1 2 3 4 5
1 last vote to show rating
add to favorites
launch autoscroll
font size
0
reset
how to read this tab
guitar tuner
Autoscroll
slow
fast
+/-
esc
set tempo
stop
Help us to improve Ultimate-Guitar.com Take our survey!
×
Author
Difficulty
novice
Anuar Zain & Ellina - Suasana Hari Raya


Intro 2x

E-----------------9----9---------------------------------------------|
B-9-9-10-10-12-12---12---12-10-9-10-9----------9-10-10-9-10-9-10-12--|
G-9-9---------------------------------11-11-11-----------------------|
D--------------------------------------------------------------------|
A--------------------------------------------------------------------|
E--------------------------------------------------------------------|

E-----------------9----9---------------------------------------------|
B-9-9-10-10-12-12---12---12-10-9-10-9--------------------------------|
G-9-9---------------------------------11-11-11-9-8-9-9---------------|
D--------------------------------------------------------------------|
A--------------------------------------------------------------------|
E--------------------------------------------------------------------|


  Berlalulah  sudah ramadan   sebulan berpuasa
E---------------------------------------------------|     
B-9-9-9h10----9-10-9------------------9-10-9-10-12--|
G----------11--------11-9-11--11-11-11--------------|  2x
D---------------------------------------------------|
A---------------------------------------------------|
E---------------------------------------------------|

  Anak muda di rantauan semuanya pulang ke desa
E---------9-----------------------------------------|
B-9-10-12---12-10-9-10--------9-10-12-10-9----9-----|
G-----------------------11-11--------------11-------|   ketiga3 2x
D---------------------------------------------------|
A---------------------------------------------------|
E---------------------------------------------------|

 Ibu dan ayah keriangan bersyukur tak terkira
E---------------------------------------------------|
B--------9-10-9-------------------------------------|
G-9-9-11--------11-9-11-8-8-8-9----8-9--------------|
D-------------------------------11------------------|
A---------------------------------------------------|
E---------------------------------------------------|


Chorus


Kuih dan muih beranika macam
E---------------------------------------------------|
B-9h10----9-10-10-9-10-12-9-------------------------|
G------11-------------------11-9--------------------|
D---------------------------------------------------|
A---------------------------------------------------|
E---------------------------------------------------|
                                                        4X
Makanlah jangan hanya di pandang
E---------------------------------------------------|
B-----9---------------------------------------------|
G---9---11-11-9-8-9-11-9----------------------------|
D-9-------------------------------------------------|
A---------------------------------------------------|
E---------------------------------------------------|

Intro 2x
Suggest correction
Give kudos to tab author, rate the tab!
1 2 3 4 5
comments
print report bad tab
guest
You may want to rate the tab now too:
select rating
Wanna post a correction for this tab? Suggest correction