Oops, an error
Loading. Please wait.

In Hell Tab

370 views 1 this week
no commentswrite comment
1 2 3 4 5
2 more votes to show rating
add to favorites
launch autoscroll
font size
0
reset
how to read this tab
guitar tuner
Autoscroll
slow
fast
+/-
esc
set tempo
stop
Help us to improve Ultimate-Guitar.com Take our survey!
×
Anvil � In Hell
                     From the Album 'Still Going Strong'
              Copyright 2002, Massacre

.  - palm mute                  ph    - pinched harmonic
/  - slide up to                ah    - artificial harmonic
  - slide down to              th    - tap harmonic
~  - vibrato                    hr    - natural harmonic
h  - hammer on                  b     - bend
p  - pull off                      Suffixes for bend
t  - tap with finger                    f - full bend    h - half bend
"  - tremolo picking                    r - release      t - tap bend
X  - percussion mute                    p - pick when bent
>  - accented note                 Prefixes
() - ghost note, sustained note         p - pre-bend     w - use bar
*  - see comment                        d - don't pick start of bend

Tune Gtr to D

In Hell

Riff A
|-----------------------------|---------------------------------------|
|-----------------------------|---------------------------------------|
|-----------------------------|--------7------------------------------|Guit
|----------------------7-6-2--|--7---7---6-2--------------------------| I
|-4-4-4--7-6-2--4-4-4--5-4-0--|--5-5-----4-0--------------------------|
|-2-2-2--5-4-0--2-2-2---------|---------------------------------------|
  . .           . .
After two times second guitar enters with same riff.

Riff B, both guitars
|--------------------------------------------------------------------|
|--------------------------------------------------------------------|
|---------------------------------7----------------------------------|
|-------------7-6-2-------------7---6-2------------------------------|
|-4--7-6-2-4--5-4-0--4--7-6-2-5-----4-0--4---------------------------|
|-2--5-4-0-2---------2--5-4-0------------2---------------------------|
  .        .         .

Riff C
|--------------------------------------------------------------------|
|--------------------------------------------------------------------|
|-------------------------------------------------7------------------|Guit
|-----------------------------------------------7---6-2--------------| I
|------------------------5p4p0----------------5-----4-0--------------|
|-2-2-0h2-5-4-0--2-2-0h2--------2-2-0h2-5-4-0------------------------|

|--------------------------------------------------------------------|
|--------------------------------------------------------------------|
|-------------------------------------------------7------------------|Guit
|-----------------------------------------------7---6-2--------------| II
|-4--------------4--------------4-------------5-----4-0--------------|
|-2--------------2--------------2------------------------------------|

After this guitar two goes higher:
|--------------------------------------------------------------------|
|--------------------------------------------------------------------|
|---------------------------7-6h7p6----------------------------------|Guit
|-4-4-2h4-7-6h7p6---4-4-2h4---------7--------------------------------| II
|-----------------7--------------------------------------------------|
|--------------------------------------------------------------------|

Riff D, both guitars. Second one enters later.
|------------------------|--------------------------------------------|
|------------------------|--------------------------------------------|
|------------------------|------7-------------------------------------|
|-----------------7-6-2--|----7---6-2---------------------------------|
|-4-4-4-76--4-4-4-5-4-0--|--5-----4-0---------------------------------|
|-2-2-2-540-2-2-2--------|--------------------------------------------|

Riff E, both
|--------------------------------------------------------------------|
|--------------------------------------------------------------------|
|--------------------------------------------------------------------|
|-----------------7-7-------h7---------------------------------------|
|-4-4-4-4-4-4-----5-5-4h6p4------------------------------------------|
|-2-2-2-2-2-2-222----------------------------------------------------|
              ���

Riff F, both
|----------------------------------------------------------------------|
|----------------------------------------------------------------------|
|-------------------------7-6/76---------------------------------------|
|-----------------5-4-----5-4/54---------------------------------------|
|-4-4-4-4-4-4-----3-2--------------------------------------------------|
|-2-2-2-2-2-2-222-----22-----------------------------------------------|
              ���     ..

Riff G. Basically riff F with this addition after slides :
|--------------------------------------------------------------------|
|--------------------------------------------------------------------|
|--------6-7/--------------------------------------------------------|
|-5-4----4-5/-999-888------------------------------------------------|
|-3-2---------777-666-999-888----------------------------------------|
|-----22--------------777-666----------------------------------------|
      ..
Suggest correction
Give kudos to tab author, rate the tab!
1 2 3 4 5
comments
print report bad tab
guest
You may want to rate the tab now too:
select rating
Wanna post a correction for this tab? Suggest correction