Oops, an error
Loading. Please wait.

Jackhammer Tab

1,145 views 1 this week
2 commentsread comments
1 2 3 4 5
2 more votes to show rating
add to favorites
launch autoscroll
font size
0
reset
how to read this tab
guitar tuner
Autoscroll
slow
fast
+/-
esc
set tempo
stop
Help us to improve Ultimate-Guitar.com Take our survey!
×
Author
Difficulty
intermediate
-------------------------------------------------------------------------------
			     Jackhammer
			   Metal on Metal
			       Anvil
-------------------------------------------------------------------------------

Tuning: Standard

Intro 2x
e|---------------------------------------------------------------------------|
B|---------------------------------------------------------------------------|
G|---------------------------------------------------------------------------|
D|------------------------5--------------------------------------------------|
A|-7~-------5----7~------------7~-------5------------------------------------|
E|----5-6-7---------5-6-7---------5-6-7---7-5-0~-----------------------------|

Main Riff 2x
e|---------------------------------------------------------------------------|
B|---------------------------------------------------------------------------|
G|---------------------------------------------------------------------------|
D|-----------------------------5---------------------------------------------|
A|-7~-------5---5-7~-------5-----7~-------5----------------------------------|
E|----5-6-7---7------5-6-7---7------5-6-7---7-5-0~---------------------------|
      . . .   .      . . .   .      . . .   . .

Verse 1
Part 1 3x
e|---------------------------------------------------------------------------|
B|---------------------------------------------------------------------------|
G|---------------------------------------------------------------------------|
D|------------------------5~~~-----------------------------------------------|
A|-7~-------5----7~------------7~--------------------------------------------|
E|----5-6-7---------5-6-7----------------------------------------------------|
      . . .         . . .
Part 2
e|---------------------------------------------------------------------------|
B|---------------------------------------------------------------------------|
G|---------------------------------------------------------------------------|
D|-----------------------------5---------------------------------------------|
A|-7~-------5---5-7~-------5-----7~-------5----------------------------------|
E|----5-6-7---7------5-6-7---7------5-6-7---7-5-0~---------------------------|
      . . .   .      . . .   .      . . .   . .
e|---------------------------------------------------------------------------|
B|---------------------------------------------------------------------------|
G|---------------------------------------------------------------------------|
D|------------------------5~~~-----------------------------------------------|
A|-7~-------5----7~------------7~--------------------------------------------|
E|----5-6-7---------5-6-7----------------------------------------------------|
      . . .         . . .

Main Riff 2x
e|---------------------------------------------------------------------------|
B|---------------------------------------------------------------------------|
G|---------------------------------------------------------------------------|
D|-----------------------------5---------------------------------------------|
A|-7~-------5---5-7~-------5-----7~-------5----------------------------------|
E|----5-6-7---7------5-6-7---7------5-6-7---7-5-0~---------------------------|
      . . .   .      . . .   .      . . .   . .

Pre-Chorus
e|---------------------------------------------------------------------------|
B|---------------------------------------------------------------------------|
G|---------------------------------------------------------------------------|
D|--------------7~~7~~7-7-7-5~~5~~5-5-5-4-4-2--------------------------------|
A|-2~-----------5~~5~~5-5-5-3~~3~~3-3-3-2-2-0-5-5-4--------------------------|
E|-0~-0-0-0-0-0-------------------------------3-3-2--------------------------|
      . . . . .
e|---------------------------------------------------------------------------|
B|---------------------------------------------------------------------------|
G|---------------------------------------------------------------------------|
D|--------------7~~7~~7-7-7-5~~5~~5-5-5-4~~-4~~-4~~~~4-------------------|
A|-2~-----------5~~5~~5-5-5-3~~3~~3-3-3-2~~-2~~-2~~~~2-------------------|
E|-0~-0-0-0-0-0--------------------------------------------------------------|
      . . . . .

Verse 3
Part 1 3x
e|---------------------------------------------------------------------------|
B|---------------------------------------------------------------------------|
G|---------------------------------------------------------------------------|
D|------------------------5~~~-----------------------------------------------|
A|-7~-------5----7~------------7~--------------------------------------------|
E|----5-6-7---------5-6-7----------------------------------------------------|

Part 2
e|---------------------------------------------------------------------------|
B|---------------------------------------------------------------------------|
G|---------------------------------------------------------------------------|
D|-----------------------------5---------------------------------------------|
A|-7~-------5---5-7~-------5-----7~-------5----------------------------------|
E|----5-6-7---7------5-6-7---7------5-6-7---7-5-0~---------------------------|
      . . .   .      . . .   .      . . .   . .

Pre-Chorus
e|---------------------------------------------------------------------------|
B|---------------------------------------------------------------------------|
G|---------------------------------------------------------------------------|
D|--------------7~~7~~7-7-7-5~~5~~5-5-5-4-4-2--------------------------------|
A|-2~-----------5~~5~~5-5-5-3~~3~~3-3-3-2-2-0-5-5-4--------------------------|
E|-0~-0-0-0-0-0-------------------------------3-3-2--------------------------|
      . . . . .
e|---------------------------------------------------------------------------|
B|---------------------------------------------------------------------------|
G|---------------------------------------------------------------------------|
D|--------------7~~7~~7-7-7-5~~5~~5-5-5-4~~-4~~-4~~~~4-----------------------|
A|-2~-----------5~~5~~5-5-5-3~~3~~3-3-3-2~~-2~~-2~~~~2-----------------------|
E|-0~-0-0-0-0-0--------------------------------------------------------------|
      . . . . .
Chorus 2x
e|---------------------------------------------------------------------------|
B|---------------------------------------------------------------------------|
G|---------------------------------------------------------------------------|
D|-9\4----------11\4-----------12\4-----------14-14-14-12~-11----------------|
A|-7\2-----------9\2-----------10\2-----------12-12-12-10~--9----------------|
E|-----0-0-0-0-0-----0-0-0-0-0------0-0-0-0-0--------------------------------|
       . . . . .     . . . . .      . . . . .

Guitar Solo
e|---------------------------------------------------------------------------|
B|------------------------------------10b12br10~~-10b12br10~~----------------|
G|-2b4br2~~--2b4br2~~--------------------------------------------------------|
D|---------------------2b4br2~~--2~~-----------------------------------------|
A|---------------------------------------------------------------------------|
E|---------------------------------------------------------------------------|

e|-12-12-12-12-12-15-12-12-12-12-12-15-12-12-15-12-12-15-----12-----12-----12|
B|-------------------------------------------------------15b----15b----15b---|
G|---------------------------------------------------------------------------|
D|---------------------------------------------------------------------------|
A|---------------------------------------------------------------------------|
E|---------------------------------------------------------------------------|

e|---------------------------------------------------------------------------|
B|---------------------------------------------------------------------------|
G|-12-14-12-----12-12-12-12-12-12-14-12----12--------------------------------|
D|----------14~-------------------------14----14-12~-12-12-12-12-14-12-14-12-|
A|---------------------------------------------------------------------------|
E|---------------------------------------------------------------------------|

e|-------12-------12-------12-------12-12~~-12-------------------12----------|
B|----12----15p12----15p12----15p12------------15-15-15-15-15-15----15-15-15-|
G|-14------------------------------------------------------------------------|
D|---------------------------------------------------------------------------|
A|---------------------------------------------------------------------------|
E|---------------------------------------------------------------------------|

e|----------12-------12-------12-------12-------12-------12-------12~--------|
B|-15-15-15----15-15----15-15-------12----15p12----15p12----15p12-----15p12--|
G|-------------------------------14------------------------------------------|
D|---------------------------------------------------------------------------|
A|---------------------------------------------------------------------------|
E|---------------------------------------------------------------------------|

e|-----------12~-12----12----12-14~-14~-14-12-14-15~-15~-15-14-15-17~-15-14--|
B|-15b17br12--------15----15-------------------------------------------------|
G|---------------------------------------------------------------------------|
D|---------------------------------------------------------------------------|
A|---------------------------------------------------------------------------|
E|---------------------------------------------------------------------------|

e|-15~-14----12~-12----12----12-14~-14~-14-12-14-15~-15~-15-14-15------------|
B|--------15~-------15----15-------------------------------------------------|
G|---------------------------------------------------------------------------|
D|---------------------------------------------------------------------------|
A|---------------------------------------------------------------------------|
E|---------------------------------------------------------------------------|

e|-17b19-19-19-19-19-19~~~~--------------------------------------------------|
B|---------------------------------------------------------------------------|
G|---------------------------------------------------------------------------|
D|---------------------------------------------------------------------------|
A|---------------------------------------------------------------------------|
E|---------------------------------------------------------------------------|

Main Riff 2x
e|---------------------------------------------------------------------------|
B|---------------------------------------------------------------------------|
G|---------------------------------------------------------------------------|
D|-----------------------------5---------------------------------------------|
A|-7~-------5---5-7~-------5-----7~-------5----------------------------------|
E|----5-6-7---7------5-6-7---7------5-6-7---7-5-0~---------------------------|
      . . .   .      . . .   .      . . .   . .

Verse 4
Part 1 3x
e|---------------------------------------------------------------------------|
B|---------------------------------------------------------------------------|
G|---------------------------------------------------------------------------|
D|------------------------5~~~-----------------------------------------------|
A|-7~-------5----7~------------7~--------------------------------------------|
E|----5-6-7---------5-6-7----------------------------------------------------|
      . . .         . . .
Part 2
e|---------------------------------------------------------------------------|
B|---------------------------------------------------------------------------|
G|---------------------------------------------------------------------------|
D|-----------------------------5---------------------------------------------|
A|-7~-------5---5-7~-------5-----7~-------5----------------------------------|
E|----5-6-7---7------5-6-7---7------5-6-7---7-5-0~---------------------------|
      . . .   .      . . .   .      . . .   . .

Pre-Chorus
e|---------------------------------------------------------------------------|
B|---------------------------------------------------------------------------|
G|---------------------------------------------------------------------------|
D|--------------7~~7~~7-7-7-5~~5~~5-5-5-4-4-2--------------------------------|
A|-2~-----------5~~5~~5-5-5-3~~3~~3-3-3-2-2-0-5-5-4--------------------------|
E|-0~-0-0-0-0-0-------------------------------3-3-2--------------------------|
      . . . . .
e|---------------------------------------------------------------------------|
B|---------------------------------------------------------------------------|
G|---------------------------------------------------------------------------|
D|--------------7~~7~~7-7-7-5~~5~~5-5-5-4~~-4~~-4~~~~4-----------------------|
A|-2~-----------5~~5~~5-5-5-3~~3~~3-3-3-2~~-2~~-2~~~~2-----------------------|
E|-0~-0-0-0-0-0--------------------------------------------------------------|
      . . . . .

Chorus 4x
e|---------------------------------------------------------------------------|
B|---------------------------------------------------------------------------|
G|---------------------------------------------------------------------------|
D|-9\4----------11\4-----------12\4-----------14-14-14-12~-11----------------|
A|-7\2-----------9\2-----------10\2-----------12-12-12-10~--9----------------|
E|-----0-0-0-0-0-----0-0-0-0-0------0-0-0-0-0--------------------------------|
       . . . . .     . . . . .      . . . . .

Outro 2x
e|---------------------------------------------------------------------------|
B|---------------------------------------------------------------------------|
G|---------------------------------------------------------------------------|
D|------------------------5---------------------------9\4--------------------|
A|-7~-------5----7~------------7~-------5---7---5-----7\2--------------------|
E|----5-6-7---------5-6-7---------5-6-7---7---7---7-5------------------------|

************************************

| /   slide up
| \   slide down
| h   hammer-on
| p   pull-off
| ~   Sustain Note
| +   harmonic
| .   Mute note
| b   Bend
| pb  Pre-bend
| br  Bend release
| pbr Pre-bend release
| brb Bend release bend

************************************
Suggest correction
Give kudos to tab author, rate the tab!
1 2 3 4 5
comments
print report bad tab
2 comments total.
0 reply
Mr. Flying V 76 Dec 20, 2011 10:40 AM

Great work on tabbing this one

0 reply
Ciaran_Deighton 10 Sep 26, 2012 02:22 AM

Nice tab dude, really under appreciated band.

guest
You may want to rate the tab now too:
select rating
Wanna post a correction for this tab? Suggest correction