Oops, an error
Loading. Please wait.

March Of The Crabs Tab

version 1
version 1

Whole song

Interactive

6,697 views 1 this week
3 commentsread comments
1 2 3 4 5
excellent!
x 5
add to favorites
launch autoscroll
font size
0
reset
how to read this tab
guitar tuner
Tab Pro tools
  • play this tab
  • loop segment
  • change instrument
  • show fretboard
  • metronome
×
Best way to learn
"March Of The Crabs"
Autoscroll
slow
fast
+/-
esc
set tempo
stop
Contributor
Difficulty
intermediate
-------------------------------------------------------------------------------
                             March of the Crabs - Anvil
-------------------------------------------------------------------------------
Tabbed by: Matthew Sommerfeldt (MGS22)
Email: sommer77@hotmail.com

Tuning: Standard


Intro:

e|-------------------------------|
B|-------------------------------|
G|-------------------------------| 13x
D|-------------------------------|
A|-------------------------------|
E|--0-10-12-0-8-10-0-7-8-0-8-10--|
    ............................   (Slowly lift your palm mute off as the intensity builds)



Riff 1:

e|------------------------------------------------------------------|
B|------------------------------------------------------------------|
G|----9-----------9-----------------------9-------------------------|
D|----9-----------9-----------------------9-------------------------|
A|----7-----------7-----------------------7-------------------------|
E|----0-----------0-0-0-0-0-0-0-0-0-0-0-0-0-0-0-0-0-0-0-0-0-0-0-0---|
                    .....................   .....................

e|-----------------------------------------------------------------------|
B|-----------------------------------------------------------------------|
G|----9-----------9------------------------------------------------------|
D|----9-----------9------------------9-9-9-9-9-9-9-9-9-9-----------------|  
A|----7-----------7------------------7-7-7-7-7-7-7-7-7-7-----------------|
E|----0-0-0-0-0-0-0-0-0-0-0-0--------------------------------------------|
        .........   .........



Main Riff:

e|---------------------------------------------------------------------------|
B|---------------------------------------------------------------------------|
G|---------------------------------------------------------------------------|
D|---------------------------------------------------------------------------|
A|-------------------0-2-3-5~------------------------------------------------|
E|--0-2-3-0-3-5---------------0-0-0-0-0-0-0-0-0-0-0-0------------------------|
                              .......................

e|---------------------------------------------------------------------------|
B|---------------------------------------------------------------------------|
G|---------------------------------------------------------------------------|   2x  
D|---------------------------------------------------------------------------|
A|--5-3-2-3-2-0--------------------------------------------------------------|
E|---------------------5-3-0-2~--0-0-0-0-0-0-0-0-0-0-0-0---------------------|
                                 .......................

Riff 2:

e|----------------------------------------------------------------|
B|----------------------------------------------------------------|
G|----9-9--5-5--7-7--4~----9-9--5-5--7~----9-9--5-5--7-7--4~------|
D|----9-9--5-5--7-7--4~----9-9--5-5--7~----9-9--5-5--7-7--4~------|
A|----7-7--3-3--5-5--2~----7-7--3-3--5~----7-7--3-3--5-5--2~------|
E|----------------------------------------------------------------|

e|----------------------------------------------------------------|
B|----------------------------------------------------------------|
G|----------------------------------------------------------------|
D|----------------------------------------------------------------|
A|--3-3-3-3-3-3-3-3-3-3-3-3--5-5-5-5-5-5-5-5-5-5------------------|
E|---------------------------------------------------- -x/15\-----|



Riff For Solo:


e|----------------------------------------------------------------------------------|
B|----------------------------------------------------------------------------------|
G|----------------------------------------------------------------------------------|
D|----------------------------------------------------------------------------------|
A|-------------------0-2-3-5~-------------------------------------------------------|
E|--0-2-3-0-3-5------------------0-0-0-0-0-0-0-0-0-0-0-0-0-0-0-0-0-0-0-0-0-0-0-0----|
                                 ................................................

e|-----------------------------------------------------------------------------------|
B|-----------------------------------------------------------------------------------|
G|-----------------------------------------------------------------------------------|  4x
D|-----------------------------------------------------------------------------------|
A|--5-3-2-3-2-0----------------------------------------------------------------------|
E|--------------------5-3-0-2~----0-0-0-0-0-0-0-0-0-0-0-0-0-0-0-0-0-0-0-0-0-0-0-0----|
                                  ...............................................

Riff 2:

e|-----------------------------------------------------------------|
B|-----------------------------------------------------------------|
G|----9-9--5-5--7-7--4~----9-9--5-5--7~----9-9--5-5--7-7--4~-------|
D|----9-9--5-5--7-7--4~----9-9--5-5--7~----9-9--5-5--7-7--4~-------|
A|----7-7--3-3--5-5--2~----7-7--3-3--5~----7-7--3-3--5-5--2~-------|
E|-----------------------------------------------------------------|

e|-----------------------------------------------------------------------------|
B|-----------------------------------------------------------------------------|
G|-----------------------------------------------------------------------------|
D|-----------------------------------------------------------------------------|
A|--3-3-3-3-3-3-3-3-3-3-3-3--5-5-5-5-5-5-5-5-5-5-5-5---------------------------|
E|-----------------------------------------------------------------------------|


Intro:

e|---------------------------------------------------------------------------|
B|---------------------------------------------------------------------------|
G|---------------------------------------------------------------------------| 6x
D|---------------------------------------------------------------------------|
A|---------------------------------------------------------------------------|
E|--0-10-12-0-8-10-0-7-8-0-8-10----------------------------------------------|
    ...................................... (Slowly lift your palm mute off)

e|------------------------------------------------------------------------------|
B|------------------------------------------------------------------------------|
G|------------------------------------------------------------------------------|
D|------------------------------------------------------------------------------|
A|-------------------------------------------x---9------------------------------|
E|--0-10-12-0-8-10-0-7-8-0-8-10--x---7------------------------------------------|


Main Riff:

e|---------------------------------------------------------------------------|
B|---------------------------------------------------------------------------|
G|---------------------------------------------------------------------------|
D|---------------------------------------------------------------------------|
A|-------------------0-2-3-5~------------------------------------------------|
E|--0-2-3-0-3-5--------------0-0-0-0-0-0-0-0-0-0-0-0-------------------------|
                             .......................

e|---------------------------------------------------------------------------|
B|---------------------------------------------------------------------------|
G|---------------------------------------------------------------------------|   2x  
D|---------------------------------------------------------------------------|
A|--5-3-2-3-2-0--------------------------------------------------------------|
E|---------------------5-3-0-2~--0-0-0-0-0-0-0-0-0-0-0-0---------------------|
                                 .......................

Riff 2:

e|----------------------------------------------------------------|
B|----------------------------------------------------------------|
G|----9-9--5-5--7-7--4~----9-9--5-5--7~----9-9--5-5--7-7--4~------|
D|----9-9--5-5--7-7--4~----9-9--5-5--7~----9-9--5-5--7-7--4~------|
A|----7-7--3-3--5-5--2~----7-7--3-3--5~----7-7--3-3--5-5--2~------|
E|----------------------------------------------------------------|

e|-----------------------------------------------------------------------------|
B|-----------------------------------------------------------------------------|
G|-----------------------------------------------------------------------------|
D|-----------------------------------------------------------------------------|
A|--3-3-3-3-3-3-3-3-3-3-3-3--5-5-5-5-5-5-5-5-5-5-5-5---------------------------|
E|-----------------------------------------------------------------------------|



Riff 1:

e|------------------------------------------------------------------|
B|------------------------------------------------------------------|
G|----9-----------9-----------------------9-------------------------|
D|----9-----------9-----------------------9-------------------------|
A|----7-----------7-----------------------7-------------------------|
E|----0-----------0-0-0-0-0-0-0-0-0-0-0-0-0-0-0-0-0-0-0-0-0-0-0-0---|
                    .....................   .....................

e|-----------------------------------------------------------------------|
B|-----------------------------------------------------------------------|
G|----9-----------9------------------------------------------------------|
D|----9-----------9------------------9-9-9-9-9-9-9-9-9-9-----------------|  
A|----7-----------7------------------7-7-7-7-7-7-7-7-7-7-----------------|
E|----0-0-0-0-0-0-0-0-0-0-0-0--------------------------------------------|
        .........   .........


End Riff:

e|--0-10-12-0-8-10-0-7-8-0-8-10----------------------------------------------|
B|---------------------------------------------------------------------------|
G|---------------------------------------------------------------------------|   8x
D|---------------------------------------------------------------------------|
A|---------------------------------------------------------------------------|
E|---------------------------------------------------------------------------|


e|--0-10-12-0-8-10-0-7-8-0-5-7-0-3-5-3-2-------------------------------------|
B|---------------------------------------------------------------------------|
G|--------------------------------------------------------9-\----------------|
D|--------------------------------------------------------9-\----------------|
A|--------------------------------------------------------7-\----------------|
E|---------------------------------------------------------------------------|


************************************

| /   slide up
| \   slide down
| h   hammer-on
| p   pull-off
| ~   vibrato
| +   harmonic
| x   Mute note
| b   Bend
| pb  Pre-bend
| br  Bend release
| pbr Pre-bend release
| brb Bend release bend

************************************
comments
print report bad tab
3 comments total.
0 reply
quickyway wrote on February 28 2010, 02:00 am

good job man, helped me so much thanks

0 reply
MGS22 wrote on March 23 2010, 03:37 am

No worries dude, I'm glad it helped!

0 reply
Thag7 wrote on October 13 2010, 02:30 pm

Hi there! Do you know if Lips plays on Standard or Eb? Please answer ^^,

I want to post or [tab]
guest
You may want to rate the tab now too:
select rating
Please do not post tabs as comments. Select "correction" instead!