Oops, an error
Loading. Please wait.

Move You Tab

14,050 views 9 this week
3 commentsread comments
1 2 3 4 5
excellent!
x 6
add to favorites
launch autoscroll
font size
0
reset
how to read this tab
guitar tuner
Autoscroll
slow
fast
+/-
esc
set tempo
stop
Help us to improve Ultimate-Guitar.com Take our survey!
×
Author
Intro/First Verse: Fingerpick notes below several times – listen to song for picking
e-----------------|-----------------|
B-----------------|-----------------|
G---5---5---5---5-|-----------------|
D-----------------|-----------------|
A-----------------|-----------------|
E-5---4---3---2---|--2---3---4------|

Other Verses: Repeat each note several times in first measure once for each verse
e-----------------|
B-----------------|
G-----------------|
D-----------------|
A-----------------|
E-5---4---3---2---|

Chorus: F – G# - C (hammer on to A# on the G string)
F and G# are barre chords

Fill A: Fill A takes place of the C chord in the second chorus
e-----------------|
B-----------------|
G-----------------|
D-----------------|
A--3--------------|
E-----4---3---2---|

Fill B:
e-----------------|
B-----------------|
G-----------------|
D-----------------|
A--3-x---x-3-x----|
E----x-3-x---x-3--|

Bridge: Fill A  x 1, Fill B  x 2, Fill A  x 2


Lyrics:

INTRO/FIRST VERSE
Bending spoons with my mind,
manifesting men of all kinds
in my spare time.
But oh, how I struggled in vain,
to solve this riddle with my brain
when the answer's in my hands.
So I wanna move you around.
Got to turn you inside out.

CHORUS
Yeah, I wanna move you,
I wanna move you around.
I wanna move you,
I wanna move you around.

VERSE
Where do you, where do you,
where do you, where do you,
where do you get off
living like I'm giving it all up to come here?

I'm moving it safe,
moving it safe,
moving it slow,
teach me a lesson cause I want to know,
if the answer's in my hands.

CHORUS
So I wanna move you,
I wanna move you around.
I I I I wanna move you,
I wanna move you around. [Fill A]
I wanna move you,
I wanna move you around. [Fill A]

BRIDGE
Yeah yeah, you with your itinerary life,
you're nothing, nothing, never fine in the light.
alright,  alright

VERSE
The nights settling, settling in your bones,
you gotta celebrate your moments,
look into your soul,
you gotta give it a go.

CHORUS
I wanna move you,
I wanna move you around.
I I I I wanna move you
I wanna move you around.
I I I I wanna kick off your boots,
give up the fight,
summon the night,
sick and tired of super light.
You gotta kick off your boots,
give up the fight,
summon the night,
sick and tired of super light.


I wanna move you,
I wanna move you around. [Fill A] x 3 end on G note
Suggest correction
comments
print report bad tab
3 comments total.
0 reply
rhui06 10 wrote on February 3 2009, 04:15 pm

I'm pretty sure the intro is:

e-----------------|-----------------|
B-----------------|-----------------|
G---5---5---5---5-|-----------------|
D-----------------|-----------------|
A-----------------|-----------------|
E-5---4---3---2---|--2---3---4------|

Or at least that sounds right to me.

0 reply
weeza08 142 wrote on February 4 2009, 09:24 am

you are totally right thanks for letting me know....i play the C note on the G string but failed to tab it out correctly.

0 reply
arnolf71 10 wrote on March 2 2014, 11:35 pm

Thanks :-)

guest
You may want to rate the tab now too:
select rating
Wanna post a correction for this tab? Suggest correction