Oops, an error
Loading. Please wait.

Satellite Heart Tab

version 1
version 1

Intro

Whole song

Interactive

42,452 views 51 this week
4 commentsread comments
1 2 3 4 5
accurate
x 9
add to favorites
launch autoscroll
font size
0
reset
how to read this tab
guitar tuner
Tab Pro tools
  • play this tab
  • loop segment
  • change instrument
  • show fretboard
  • metronome
Autoscroll
slow
fast
+/-
esc
set tempo
stop
Contributor
Frist tab!!! hope it's right

Intro

e||-----2-2---2-2---2-2---2-|-----2-2---2-2---2-2---2-|
B||-------------------------|-------------------------|
G||-------------------------|-------------------------|
D||-1-1-----1-----1-----1---|-------------------------|
A||-------------------------|-4-4-----4-----4-----4---|
E||-------------------------|-------------------------|


e||-------------------------|
B||-------------------------|
G||-----3-3---3-3---3-3---3-|
D||-------------------------|
A||-------------------------|
E||-2-2-----2-----2-----2---|

Verse 1:
e||-----2-2---2-2---2-2---2-|-----2-2---2-2---2-2---2-|
B||-------------------------|-------------------------|
G||-------------------------|-------------------------|
D||-1-1-----1-----1-----1---|-------------------------|
A||-------------------------|-4-4-----4-----4-----4---|
E||-------------------------|-------------------------|
          So pretty, so smart, such a waste of a young heart

e||-------------------------|
B||-------------------------|
G||-----3-3---3-3---3-3---3-|
D||-------------------------|
A||-------------------------|
E||-2-2-----2-----2-----2---|

e||-----2-2---2-2---2-2---2-|-----2-2---2-2---2-2---2-|
B||-------------------------|-------------------------|
G||-------------------------|-------------------------|
D||-1-1-----1-----1-----1---|-------------------------|
A||-------------------------|-4-4-----4-----4-----4---|
E||-------------------------|-------------------------|
           What a pity, what a sham, whats the mater with you man

e||-------------------------|
B||-------------------------|
G||-----3-3---3-3---3-3---3-|
D||-------------------------|
A||-------------------------|
E||-2-2-----2-----2-----2---|

-------------------------------------------------------

e||-----2-2---2-2---2-2---2-|-----2-2---2-2---2-2---2-|
B||-------------------------|-------------------------|
G||-------------------------|-------------------------|
D||-1-1-----1-----1-----1---|-------------------------|
A||-------------------------|-4-4-----4-----4-----4---|
E||-------------------------|-------------------------|


e||-------------------------|
B||-------------------------|
G||-----4-4---4---3-3---3---|
D||-------------------------|
A||-------------------------|
E||-2-2-----2---2-----2-----|

------------------------------------------------------

Verse 2
e||-----2-2---2-2---2-2---2-|-----2-2---2-2---2-2---2-|
B||-------------------------|-------------------------|
G||-------------------------|-------------------------|
D||-1-1-----1-----1-----1---|-------------------------|
A||-------------------------|-4-4-----4-----4-----4---|
E||-------------------------|-------------------------|
           Don't you see it's...     Out of mind and out of sight
e||-------------------------|
B||-------------------------|
G||-----3-3---3-3---3-3---3-|
D||-------------------------|
A||-------------------------|
E||-2-2-----2-----2-----2---|

e||-----2-2---2-2---2-2---2-|-----2-2---2-2---2-2---2-|
B||-------------------------|-------------------------|
G||-------------------------|-------------------------|
D||-1-1-----1-----1-----1---|-------------------------|
A||-------------------------|-4-4-----4-----4-----4---|
E||-------------------------|-------------------------|
           Call on all your girls... Put a lid on all that noise

e||-------------------------|
B||-------------------------|
G||-----3-3---3-3---3-3---3-|
D||-------------------------|
A||-------------------------|
E||-2-2-----2-----2-----2---|

Chorus
e||-----2-2---2-2---2-2---2-|-----2-2---2-2---2-2---2-|
B||-------------------------|-------------------------|
G||-------------------------|-------------------------|
D||-1-1-----1-----1-----1---|-------------------------|
A||-------------------------|-4-4-----4-----4-----4---|
E||-------------------------|-------------------------|
    I'm                a    satellite      heart,           

e||-------------------------|-----------------2-2---2-|
B||-------------------------|-----4-4---4-------------|
G||-----4-4---4-4---4-4---4-|-------------------------|
D||-------------------------|-------------0-0-----0---|
A||-------------------------|-2-2-----2---------------|
E||-2-2-----2-----2-----4---|-------------------------|
           lost  in   the      dark

e||-----2-2---2-2---2-2---2-|-----2-2---2-2---2-2---2-|
B||-------------------------|-------------------------|
G||-------------------------|-------------------------|
D||-1-1-----1-----1-----1---|-------------------------|
A||-------------------------|-4-4-----4-----4-----4---|
E||-------------------------|-------------------------|
    I'm            spun out  so     Far     you    stop

e||-------------------------|-------------------------|
B||-------------------------|-------------------------|
G||-----4-4---4-----3-3---3-|-----3-3---3-3---3-3---3-|
D||-------------------------|-------------------------|
A||-------------------------|-------------------------|
E||-2-2-----2---2-2-----2---|-2-2-----2-----2-----2---|
    i start,                  But    i'll   be     true 

e||-------------------------|
B||-------------------------|
G||-----3-3---3-3---3-3---3-|
D||-------------------------|
A||-------------------------|
E||-2-2-----2-----2-----2---|
    to you

-------------------------------------------------------

e||-----2-2---2-2---2-2---2-|-----2-2---2-2---2-2---2-|
B||-------------------------|-------------------------|
G||-------------------------|-------------------------|
D||-1-1-----1-----1-----1---|-------------------------|
A||-------------------------|-4-4-----4-----4-----4---|
E||-------------------------|-------------------------|


e||-------------------------|-------------------------|
B||-------------------------|-------------------------|
G||-----3-3---3-3---3-3---3-|-----3-3---3-3---3-3---3-|
D||-------------------------|-------------------------|
A||-------------------------|-------------------------|
E||-2-2-----2-----2-----2---|-2-2-----2-----2-----2---|

-------------------------------------------------------

Verse 3
e||-----2-2---2-2---2-2---2-|-----2-2---2-2---2-2---2-|
B||-------------------------|-------------------------|
G||-------------------------|-------------------------|
D||-1-1-----1-----1-----1---|-------------------------|
A||-------------------------|-4-4-----4-----4-----4---|
E||-------------------------|-------------------------|
          I hear your living out... Running in a whole new 

e||-------------------------|
B||-------------------------|
G||-----3-3---3-3---3-3---3-|
D||-------------------------|
A||-------------------------|
E||-2-2-----2-----2-----2---|
   scene

e||-----2-2---2-2---2-2---2-|-----2-2---2-2---2-2---2-|
B||-------------------------|-------------------------|
G||-------------------------|-------------------------|
D||-1-1-----1-----1-----1---|-------------------------|
A||-------------------------|-4-4-----4-----4-----4---|
E||-------------------------|-------------------------|
           you know i haven't slept.. You're the only thing

e||-------------------------|-------------------------|
B||-------------------------|-------------------------|
G||-----4-4---4-----3-3---3-|-----3-3---3-3---3-3---3-|
D||-------------------------|-------------------------|
A||-------------------------|-------------------------|
E||-2-2-----2---2-2-----2---|-2-2-----2-----2-----2---|
    I see

e||-------------------------|
B||-------------------------|
G||-----3-3---3-3---3-3---3-|
D||-------------------------|
A||-------------------------|
E||-2-2-----2-----2-----2---|


Chorus x2
e||-----2-2---2-2---2-2---2-|-----2-2---2-2---2-2---2-|
B||-------------------------|-------------------------|
G||-------------------------|-------------------------|
D||-1-1-----1-----1-----1---|-------------------------|
A||-------------------------|-4-4-----4-----4-----4---|
E||-------------------------|-------------------------|
    I'm              a satellite heart, lost in the dark  

e||-----2-2---2-2---2-2---2-|
B||-------------------------|
G||-------------------------|
D||-------------------------|
A||-------------------------|
E||-4-4-----4-----4-----4---|

e||-----2-2---2-2---2-2---2-|-----2-2---2-2---2-2---2-|
B||-------------------------|-------------------------|
G||-------------------------|-------------------------|
D||-1-1-----1-----1-----1---|-------------------------|
A||-------------------------|-4-4-----4-----4-----4---|
E||-------------------------|-------------------------|
    I'm            spun out  so    far,     you    stop

e||-------------------------|-------------------------|
B||-------------------------|-------------------------|
G||-----4-4---4-----3-3---3-|-----3-3---3-3---3-3---3-|
D||-------------------------|-------------------------|
A||-------------------------|-------------------------|
E||-2-2-----2---2-2-----2---|-2-2-----2-----2-----2---|
    i start,                  But    i'll   be     true 

e||-------------------------|
B||-------------------------|
G||-----3-3---3-3---3-3---3-|
D||-------------------------|
A||-------------------------|
E||-2-2-----2-----2-----2---|
    to you


e||-----2-2---2-2---2-2---2-|-------------------------|
B||-------------------------|-------------------------|
G||-------------------------|-----3-3---3-3---3-3---3-|
D||-------------------------|-------------------------|
A||-4-4-----4-----4-----4---|-------------------------|
E||-------------------------|-2-2-----2-----2-----2---|
   No   matter   what   you   do

e||-----2-2---2-2---2-2---2-|-------------------------|
B||-------------------------|-------------------------|
G||-------------------------|-----3-3---3-3---3-3---3-|
D||-------------------------|-------------------------|
A||-4-4-----4-----4-----4---|-------------------------|
E||-------------------------|-2-2-----2-----2-----2---|
    Yeah      i'll     be     true    to    you



e||-------------------------|-------------------------|
B||-4-----------------------|-3-----------------------|
G||-4-----------------------|-4-----------------------|
D||-------------------------|-------------------------|
A||-2-----------------------|-2-----------------------|
E||-------------------------|-------------------------|

e||-------------------------|
B||-------------------------|
G||-3-----------------------|
D||-4-----------------------|
A||-------------------------|
E||-2-----------------------|


e||-----2-2---2-2---2-2---2-|-----2-2---2-2---2-2---2-|
B||-------------------------|-------------------------|
G||-------------------------|-------------------------|
D||-1-1-----1-----1-----1---|-------------------------|
A||-------------------------|-4-4-----4-----4-----4---|
E||-------------------------|-------------------------|


e||-------------------------|
B||-------------------------|
G||-----3-3---3-3---3-3---3-|
D||-------------------------|
A||-------------------------|
E||-2-2-----2-----2-----2---|


The end....
comments
print report bad tab
4 comments total. Showing first comments.
0 reply
alexthejordan wrote on December 18 2009, 11:56 am

ok so this tab is perfect, but instead of this....

e||-----2-2---2-2---2-2---2-|-----2-2---2-2---2-2---2-|
B||-------------------------|-------------------------|
G||-------------------------|-------------------------|
D||-1-1-----1-----1-----1---|-------------------------|
A||-------------------------|-4-4-----4-----4-----4---|
E||-------------------------|-------------------------|

try this instead. its a much easier transition, even though you have to stretch your fingers a little.

e||-------------------------|-------------------------|
B||------5-5---5-5---5-5---5|-----5-5---5-5---5-5---5-|
G||-------------------------|-------------------------|
D||-------------------------|-------------------------|
A||--6-6-----6-----6-----6--|-4-4-----4-----4-----4---|
E||-------------------------|-------------------------|

0 reply
alexthejordan wrote on January 2 2010, 02:35 pm

wait a sec... i meant 5 instead of 7. so change all those 5's to sevenes on the B string.

0 reply
KaylaJay wrote on January 13 2010, 11:50 am

e||-----2-2---2-2---2-2---2-|-----2-2---2-2---2-2---2-|
B||-------------------------|-------------------------|
G||-------------------------|-------------------------|
D||-1-1-----1-----1-----1---|-------------------------|
A||-------------------------|-4-4-----4-----4-----4---|
E||-------------------------|-------------------------|

It would sound so "twangy" though. In the song, it's more rough

I want to post or [tab]
guest
You may want to rate the tab now too:
select rating
Please do not post tabs as comments. Select "correction" instead!