Oops, an error
Loading. Please wait.

Here Comes The Bride tab

version 1
version 1

Whole song

by Anyone
55,971 views 87 this week
6 commentsread comments
1 2 3 4 5
x 12
add to favorites
×
Save as Personal and add changes to this tab that will be seen only by you. Learn more ›
×
You can save this tab as Personal to edit and correct it or add notes. All changes will be seen only by you. Learn more »
launch autoscroll
font size
0
reset
how to read this tab
guitar tuner
edit
Autoscroll
slow
fast
+/-
esc
set tempo
stop
Yes well I know it's odd but still i'm going to put it because it's fun to play...

e|--------------------------------------------------|
b|--------------------------------------------------|
G|-------3---3-3-------------5---2-3----------------|     
D|--3-------------------3---------------------------|
A|--------------------------------------------------|
E|--------------------------------------------------|

e|--------------------------------------------------|
b|----------4-4----3--------------------------------|
G|-------3-------------5-3h5p3-2--3-5---------------|     
D|--3-----------------------------------------------|
A|--------------------------------------------------|
E|--------------------------------------------------|


************************************

| h  hammer on
| p  pull off 

************************************

            
            
Suggest correction
Creating personal tab
Creating personal tab
You can edit any tab online and save it as your Personal.

You can edit, replace or remove any tab part or add personal notes – all changes will be seen only by you.

Personal tabs can be accessed anytime from any device, even offline.
Learn more »
comments
print report bad tab
6 comments total. Showing first comments.
0 reply
Trey3 93 Oct 05, 2009 01:19 PM

wtf mate

0 reply
Jelly Man 30 Apr 16, 2010 02:30 AM

this sucks hahaa

0 reply
hiwaychild1 550 Nov 01, 2010 03:29 PM

total piece of crap

guest
You may want to rate the tab now too:
select rating
Wanna post a correction for this tab? Suggest correction