Oops, an error
Loading. Please wait.

Directions tab

by Aphasia
61 views 1 this week
no commentswrite comment
1 2 3 4 5
2 more votes to show rating
add to favorites
×
Save as Personal and add changes to this tab that will be seen only by you. Learn more ›
×
You can save this tab as Personal to edit and correct it or add notes. All changes will be seen only by you. Learn more »
launch autoscroll
font size
0
reset
how to read this tab
guitar tuner
edit
Autoscroll
slow
fast
+/-
esc
set tempo
stop
Aphasia
Directions

Tuning: Drop A


[Intro] (0:14 - 0:43)

  Plays twice
B |----------------------------------------------------------------------------------------0----0--0--|
F#|----------------------------------------------------------------------------------------7/10-10-10-|
D |---------------------------------------------------------------------------------------------------|
A |-4-2-------------------------------------4-2-2-4-4-2-----------------------------------------------|
E |-4-2--------7----------------------------4-2-2-4-4-2--------7--------------------------------------|
A |-4-2-0--0-0----0-0--0-0--0--0-0-0-0-0-0--4-2-2-4-4-2-0--0-0----0-0--0-0--0--0-0-0-0-0-0------------|

B |----------------------------------------------------------------------------------------0-----0--0--|
F#|----------------------------------------------------------------------------------------10/14-14-14-|
D |----------------------------------------------------------------------------------------------------|
A |-4-2-------------------------------------4-2-2-4-4-2------------------------------------------------|
E |-4-2--------7----------------------------4-2-2-4-4-2--------7---------------------------------------|
A |-4-2-0--0-0----0-0--0-0--0--0-0-0-0-0-0--4-2-2-4-4-2-0--0-0----0-0--0-0--0--0-0-0-0-0-0-------------|


[Riff 1] (0:44 - 0:59)

  Plays twice
B |----------------------------------------------------------|
F#|----------------------------------------------------------|
D |----------------------------------------------------------|
A |----------------------------------------------------------|
E |-0-0------0-0-0-0--0-0--0-0--0-0--0-0-0-0-----0-0-0-0-0-0-|
A |-0-0--2^--0-0-0-0--0-0--0-0--0-0--0-0-0-0--0--0-0-0-0-0-0-|

B |---------------------------------------------------------|
F#|---------------------------------------------------------|
D |---------------------------------------------------------|
A |-----------------------------------------------------4h7-|
E |----0-0-0-0--0-0--0-0--0-0--0-0--0-0-0-0-------0h4h5-----|
A |-2^-0-0-0-0--0-0--0-0--0-0--0-0--0-0-0-0-0h2h4-----------|


[Riff 2] (1:02 - 1:17)

  Plays twice
B |----------------------------------------------------------------------------------------------------------|
F#|----------------------------------------------------------------------------------------------------------|
D |----------------------------------------------------------------------------------------------------------|
A |------------------------------------------------------------------------4h7--------------4h7p4p0----------|
E |------------7--------5-------------4------------------------------0h4h5--------------------------4p0------|
A |-4--4-4-4-4---4-4--4----2--2-2-2-2---0-0--0-0h2-0--0-0-0-0--0h2h4-----------0-0--0-0-0-0--------------4p0-|


[Breakdown 1] (1:18 - 1:32)

B |-------------------------------------------5--------------------|
F#|-------------------------------------------5--------------------|
D |-------------------------------------------7--------------------|
A |------0-0-0-0----0-0--0-0---------0-0-0-0--7----------------0h2-|
E |------0-0-0-0----0-0--0-0---------0-0-0-0-------------0h2h4-----|
A |-0----0-0-0-0----0-0--0-0----0----0-0-0-0-------0h2h4-----------|

B |-------------------------------------------5--------------------|
F#|-------------------------------------------5--------------------|
D |-------------------------------------------7--------------------|
A |------0-0-0-0----0-0--0-0---------0-0-0-0--7----------------4h7-|
E |------0-0-0-0----0-0--0-0---------0-0-0-0-------------0h4h5-----|
A |-0----0-0-0-0----0-0--0-0----0----0-0-0-0-------0h2h4-----------|


[Chorus 1] (1:34 - 1:49)

B |------------------------14--------------------------------12---------|
F#|------------10-14-12-10----12-10-12------------10-12-10-9----10-9-10-|
D |---------------------------------------------------------------------|
A |-4-7-7-7----------------------------2-6-6-6--------------------------|
E |-4-4-4-4----------------------------2-2-2-2--------------------------|
A |-4-4-4-4----------------------------2-2-2-2--------------------------|

B |-------------------------------------------------------------16h17-|
F#|------------------------------------------------------14h17--------|
D |-------------------------------------------------------------------|
A |-0-0-0-0--0--0--0--0-0-0-0-0-------------4h7-0h11h12p0-------------|
E |-0-0-0-0--0--0--0--0-0-0-0-0-------0h4h5---------------------------|
A |-0-0-0-0--0--0--0--0-0-0-0-0-0h2h4---------------------------------|

B |----------------------14------------------------------12---------|
F#|----------10-14-12-10----12-10-12----------10-12-10-9----10-9-10-|
D |-----------------------------------------------------------------|
A |-4-7-7----------------------------2-6-6--------------------------|
E |-4-4-4----------------------------2-2-2--------------------------|
A |-4-4-4----------------------------2-2-2--------------------------|

B |-------------------------------------------------------------16h17-|
F#|------------------------------------------------------14h17--------|
D |-------------------------------------------------------------------|
A |-0-0-0-0--0--0--0--0-0-0-0-0-------------4h7-0h11h12p0-------------|
E |-0-0-0-0--0--0--0--0-0-0-0-0-------0h4h5---------------------------|
A |-0-0-0-0--0--0--0--0-0-0-0-0-0h2h4---------------------------------|


[Riff 3] (1:49 - 2:04)

  (Plays twice)
B |-----------------------------------------------------------------------------------------|
F#|-----------------------------------------------------------------------------------------|
D |-----------------------------------------------------------------------------------------|
A |-----------------------------------------------------4-7---------------4h7p4p0-----------|
E |-----------------------------------------------0h4h5---------------------------4p0-------|
A |-lofi, first half not played--0--0-0-0-0-0h2h4------------0-0--0-0-0-0--------------4p0--|

B |----------------------------------------------------------------------------------------------------------|
F#|----------------------------------------------------------------------------------------------------------|
D |----------------------------------------------------------------------------------------------------------|
A |------------------------------------------------------------------------4h7--------------4h7p4p0----------|
E |------------7--------5-------------4------------------------------0h4h5--------------------------4p0------|
A |-4--4-4-4-4---4-4--4----2--2-2-2-2---0-0--0-0h2-0--0-0-0-0--0h2h4-----------0-0--0-0-0-0--------------4p0-|


[Transition] (2:04 - 2:11)

B |-----------------------------------------------------------------------|
F#|-----------------------------------------------------------------------|
D |-----------------------------------------------------------------------|
A |-7-6--2-6-------4h7p4p0------------------------------------------------|
E |-4-4--2-2---------------4h5p4p0----------------------------------------|
A |-4-4--2-2--0-2------------------0-4-2-0-0--0-0-0-0--0--0--0--0-0-0-0-0-|

B |-16-17-16---------------------------------------|
F#|----------17-14---------------------------------|
D |----------------14------------------------------|
A |-------------------12-11-11h12p11---------------|
E |----------------------------------12-11---------|
A |----------------------------------------12-11-7-|


[Breakdown 2] (2:11 - 2:25)

B |-------------------------------------------5--------------------|
F#|-------------------------------------------5--------------------|
D |-------------------------------------------7--------------------|
A |------0-0-0-0----0-0--0-0---------0-0-0-0--7----------------0h2-|
E |------0-0-0-0----0-0--0-0---------0-0-0-0-------------0h2h4-----|
A |-0----0-0-0-0----0-0--0-0----0----0-0-0-0-------0h2h4-----------|

B |-------------------------------------------5--------------------|
F#|-------------------------------------------5--------------------|
D |-------------------------------------------7--------------------|
A |------0-0-0-0----0-0--0-0---------0-0-0-0--7----------------4h7-|
E |------0-0-0-0----0-0--0-0---------0-0-0-0-------------0h4h5-----|
A |-0----0-0-0-0----0-0--0-0----0----0-0-0-0-------0h2h4-----------|


[Chorus 2] (2:28 - 2:43)

B |------------------------14--------------------------------12---------|
F#|------------10-14-12-10----12-10-12------------10-12-10-9----10-9-10-|
D |---------------------------------------------------------------------|
A |-4-7-7-7----------------------------2-6-6-6--------------------------|
E |-4-4-4-4----------------------------2-2-2-2--------------------------|
A |-4-4-4-4----------------------------2-2-2-2--------------------------|

B |-------------------------------------------------------------16h17-|
F#|------------------------------------------------------14h17--------|
D |-------------------------------------------------------------------|
A |-0-0-0-0--0--0--0--0-0-0-0-0-------------4h7-0h11h12p0-------------|
E |-0-0-0-0--0--0--0--0-0-0-0-0-------0h4h5---------------------------|
A |-0-0-0-0--0--0--0--0-0-0-0-0-0h2h4---------------------------------|

B |----------------------14------------------------------12---------|
F#|----------10-14-12-10----12-10-12----------10-12-10-9----10-9-10-|
D |-----------------------------------------------------------------|
A |-4-7-7----------------------------2-6-6--------------------------|
E |-4-4-4----------------------------2-2-2--------------------------|
A |-4-4-4----------------------------2-2-2--------------------------|

B |-------------------------------------------------------------16h17-|
F#|------------------------------------------------------14h17--------|
D |-------------------------------------------------------------------|
A |-0-0-0-0--0--0--0--0-0-0-0-0-------------4h7-0h11h12p0-------------|
E |-0-0-0-0--0--0--0--0-0-0-0-0-------0h4h5---------------------------|
A |-0-0-0-0--0--0--0--0-0-0-0-0-0h2h4---------------------------------|


[Chorus 3] (2:43 - 2:58)

B |----------------------------------------------------------------------------------------------------16h17-|
F#|----------------------------------------------------------------------------------------------14h17-------|
D |----------------------------------------------------------------------------------------------------------|
A |-4-7-7-7-7-7-7-7----2-6-6-6-6-6-6-6----0-0-0-0--0--0--0--0-0-0-0-0--------------4h7-0h11h12p0-------------|
E |-4-4-4-4-4-4-4-4----2-2-2-2-2-2-2-2----0-0-0-0--0--0--0--0-0-0-0-0--------0h4h5---------------------------|
A |-4-4-4-4-4-4-4-4----2-2-2-2-2-2-2-2----0-0-0-0--0--0--0--0-0-0-0-0--0h2h4---------------------------------|

B |----------------------------------------------------------------------------------------|
F#|----------------------------------------------------------------------------------------|
D |----------------------------------------------------------------------------------------|
A |-4-7-7-7-7-7-7-7----2-6-6-6-6-6-6-6----0-0-0-0--0--0--0--0-0-0-0-0--0--0--0--0--0-0-0-0-|
E |-4-4-4-4-4-4-4-4----2-2-2-2-2-2-2-2----0-0-0-0--0--0--0--0-0-0-0-0--0--0--0--0--0-0-0-0-|
A |-4-4-4-4-4-4-4-4----2-2-2-2-2-2-2-2----0-0-0-0--0--0--0--0-0-0-0-0--0--0--0--0--0-0-0-0-|


[Riff 4] (2:58 - 3:28)

  Rhythm (plays twice)
B |-----------------------------------------------------------------|
F#|-----------------------------------------------------------------|
D |-----------------------------------------------------------------|
A |-4-7-7-7-7-7-7-7-6-6-6-6-6-6-6-6-0-0-0-0-0-0-0-0---0-0-0---------|
E |-4-4-4-4-4-4-4-4-2-2-2-2-2-2-2-2-0-0-0-0-0-0-0-0---0-0-0---------|
A |-4-4-4-4-4-4-4-4-2-2-2-2-2-2-2-2-0-0-0-0-0-0-0-0-0-0-0-0-0-0-0-0-|

B |-----------------------------------------------------------------|
F#|-----------------------------------------------------------------|
D |-----------------------------------------------------------------|
A |-4-7-7-7-7-7-7-7-7-7-7-7-7-7-7-7-0-2-6-6-6-6-6-6---0-0-0---------|
E |-4-4-4-4-4-4-4-4-7-7-7-7-7-7-7-7-0-2-2-2-2-2-2-2---0-0-0---------|
A |-4-4-4-4-4-4-4-4-7-7-7-7-7-7-7-7-0-2-2-2-2-2-2-2-0-0-0-0-0-0-0-0-|


[Lead] (starts in second half at 3:13)

B |-10-9-------------9-10-9-------------9-10-9--------------9-10-12-10-9---------9-|
F#|------10-7---7-10-------10-7---7-10---------10-7---7-10---------------10-7-10---|
D |-----------9-----------------9-------------------9------------------------------|
A |--------------------------------------------------------------------------------|
E |--------------------------------------------------------------------------------|
A |--------------------------------------------------------------------------------|

B |-17-16----------------16-17-16----------------16-17-16----------------16-16h17--17\19-|
F#|-------17-14----14-17----------17-14----14-17----------17-14----14-17-----------------|
D |-------------16----------------------16----------------------16-----------------------|
A |--------------------------------------------------------------------------------------|
E |--------------------------------------------------------------------------------------|
A |--------------------------------------------------------------------------------------|


[Breakdown 3] (3:28 - 3:42)

(plays twice)
B |--------------------------------------------2~------------------------------------------------------------|
F#|---------------------------------------------2~-----------------------------------------------------------|
D |----------------------------------------------2~----------------------------------------------------------|
A |-----0-0-0-0--0--0--0-0-0-0--0--0-0-----0-0----2~-------0-0-0-0--0--0--0-0-0-0--0--0-0--6-6-6-6--6-6-6-6--|
E |-----0-0-0-0--0--0--0-0-0-0--0--0-0-----0-0-----2~------0-0-0-0--0--0--0-0-0-0--0--0-0--2-2-2-2--2-2-2-2--|
A |-0---0-0-0-0--0--0--0-0-0-0--0--0-0--0--0-0------2~--0--0-0-0-0--0--0--0-0-0-0--0--0-0--2-2-2-2--2-2-2-2--|


************************************

| h  Hammer-on
| p  Pull-off
| /  Slide up
| \  Slide down
| ~  Harmonic

************************************
Suggest correction
Creating personal tab
Creating personal tab
You can edit any tab online and save it as your Personal.

You can edit, replace or remove any tab part or add personal notes – all changes will be seen only by you.

Personal tabs can be accessed anytime from any device, even offline.
Learn more »
Give kudos to tab author, rate the tab!
1 2 3 4 5
comments
print report bad tab
guest
You may want to rate the tab now too:
select rating
Wanna post a correction for this tab? Suggest correction